PrimaNota.ru - самый крупный в мире бесплатный архив песенных текстов, аккордов, табулатур и нот


Tim Christensen - Love Is A Losers Game - аккорды и текст, таба, видео

Регистрация Запомнить меня
Войти через:  Facebook Google Twitter Vk Yandex Mail.ru

Tim Christensen - Love Is A Losers Game - аккорды и текст, таба, видео

Печатать
Просмотров: 72
Love Is A Losers Game
Tim Christensen
    ___________________________
   /  Tim Christensen         /  Mmm, man bliver sgu helt nostalgisk af denne
  /  Love is a Loser's Game  /  her! Jeg købte lige dvd'en, og det er egentlig
 /  Abbey Road Koncerten    /  nogle rigtig lækre akkorder han har fundet her,
/__________________________/  så tænkte at jeg lige ville lægge dem ud engang.


 Intro/Mellemspil:
Her spiller Tim de kendte riff.

  F                 D/F#              F                 D/F#
|-----------------|-----------------|-----------------|-----------------|
|-------3---1---0-|-------0h1-0-----|-------3---1---0-|-------0h1-0-----|
|-----2---2---2---|-----2-----------|-----2---2---2---|-----2---------2-|
|-----------------|-----------------|-----------------|-----------------|
|-----------------|-----------------|-----------------|-----------------|
|-1---------------|-2-----------2---|-1---------------|-2-----------2---|

  F                 D/F#              G                 G
|-----------------|-----------------|-------0---------|-----------------|
|-------3---1---0-|-------0h1-0---1-|-------------3---|---------3-------|
|-----2---2---2---|-----2-------2---|-----0---0-------|-----0-------0---|
|-----------------|-----------------|-----------------|-----------------|
|-----------------|-----------------|-----------------|-----------------|
|-1---------------|-2---------------|-3---------------|-3---------------|



 Vers:
Dette er næsten magen til Intro/Mellemspil, men læg mærke de små forskelle
i tonerne i D/F#-takterne. De følger nu melodien helt. Han laver naturligivs
nogle små variationer, men det her er det grundlæggende, der går igen.

  F                 D/F#              F                 D/F#
|-----------------|-----------------|-----------------|-----------------|
|-------3---1---0-|-------1---0-----|-------3---1---0-|-------1---0-----|
|-----2---2---2---|-----2---2-------|-----2---2---2---|-----2---2-----2-|
|-----------------|-----------------|-----------------|-----------------|
|-----------------|-----------------|-----------------|-----------------|
|-1---------------|-2-----------2---|-1---------------|-2-----------2---|

  F                 D/F#              G                 G
|-----------------|-----------------|-------0---------|-----------------|
|-------3---1---0-|-------1---0---1-|-------------3---|---------3-------|
|-----2---2---2---|-----2---2---2---|-----0---0-------|-----0-------0---|
|-----------------|-----------------|-----------------|-----------------|
|-----------------|-----------------|-----------------|-----------------|
|-1---------------|-2---------------|-3---------------|-3---------------|



  " I saw your face in the paper that I bought today
    I heard our song on the radio
    I know you're not a part of this wicked world anymore
    But light our sun for me then I don't care
              E7*
    If you're standing there "


  " I don't remember nothing, though after all we've been going through
    But life goes on for me and I don't care
    I saw your face in the paper that I bought today
    I heard our song on the radio
         E7*
    On a rainy-day show "

                                                                  _E_A_D_G_B_E_
                                                                 | | | | | | | |
 Omkvæd:                                                     *E7 | 0 2 0 1 3 0 |
Her spilles akkorderne der står ude til højre:                   |             |
                                                               A | x 0 2 2 2 0 |
                                                                 |             |
  A          Fmaj9/A Bbsus2                              Fmaj9/A | x 0 3 0 1 0 |
  She don't mind the pain                                        |             |
                                                          Bbsus2 | x 1 3 3 1 1 |
  Bm7b5      E7      F                                           |             |
  Love is a loser's game                                   Bm7b5 | x 2 3 2 3 x |
                                                                 |             |
              F7M  #11                                        E7 | 0 2 2 1 3 0 |
  Time is on my side                                             |             |
                                                               F | 1 3 3 2 1 1 |
                 E7sus4                                          |             |
  You've got nothing to hide                            F7M  #11 | 1 3 3 2 0 0 |
                                                                 |             |
  E7         Am      Am/G      D/F#                       E7sus4 | 0 x 2 2 3 0 |
  Love is a loser's game, my friend                              |             |
                                                              E7 | 0 x 2 1 3 0 |
   E7                                                            |             |
  'Till the very end                                          Am | x 0 2 2 1 0 |
                                                                 |             |
                                                            Am/G | 3 x 2 2 1 0 |
                                                                 |             |
                                                            D/F# | 2 x 0 2 3 x |
                                                                 |             |
                                                              E7 | 0 2 2 1 3 0 |
                                                                 |_|_|_|_|_|_|_|
Jon Sebastian Frederiksen - 22nd /October /09
Just mail me at Maitinin@gmail.com with questions, comments and correction!
Добавлено: 30.04.2012
Вам также может быть интересно:
Другие материалы по этой песне:
  • Аккорды и текст

Страница создана 30.04.2012
http://primanota.ru/tim-christensen/love-is-a-losers-game-chords.htm
Привет, Гость.
Предлагаем пройти революционный курс по гитаре.
Подарок от PrimaNota.Ru, забирай!