- самый крупный в мире бесплатный архив песенных текстов, аккордов, табулатур и нот

Tim And Eric - Father And Son - таба, видео

Регистрация Запомнить меня
Войти через:  Facebook Google Twitter Vk Yandex

Tim And Eric - Father And Son - таба, видео

Просмотров: 118
Tim and Eric - "Father and son" (guitar solo)

Original video:
The solo part is between 12:41 and 12:56

I've chopped that part, in here:

And there is also this excellent cover (not mine), which helped writing the tab:

Tuning: EADGBe

e -------------------------|
B ---13b14b13-13--10----10-|
G -------------------12----|
D -------------------------|
A -------------------------|
E -------------------------|

e --------------16---15p13p12--13p12-15p12-13p12-15p12-13p12-13p12-13p12-|
B --13b14b13-13----------------------------------------------------------|
G -----------------------------------------------------------------------|
D -----------------------------------------------------------------------|
A -----------------------------------------------------------------------|
E -----------------------------------------------------------------------|

e -21b23b21~~--14---------------|
B ----------------17------------|
G -------------------14p13~~~x--|
D ------------------------------|
A ------------------------------|
E ------------------------------|

"13b14b13" means pluck "13", bend it till it sounds like "14", and from there release slowly untill
it sounds again like "14"

Play with distortion.
Добавлено: 09.10.2015
Вам также может быть интересно:
Другие материалы по этой песне:
  • Аккорды и текст

Страница создана 09.10.2015
Привет, Гость.
Предлагаем пройти революционный курс по гитаре.
Подарок от PrimaNota.Ru, забирай!