PrimaNota.ru - самый крупный в мире бесплатный архив песенных текстов, аккордов, табулатур и нот


Tiki Taane - Always On My Mind - аккорды и текст, таба, видео

Регистрация Запомнить меня
Войти через:  Facebook Google Twitter Vk Yandex Mail.ru

Tiki Taane - Always On My Mind - аккорды и текст, таба, видео

Печатать
Просмотров: 293
Авторы музыки: Tiki

Always On My Mind
Tiki Taane
-------------------------------------------------------------------------------
                             ALWAYS ON MY MIND - Tiki Taane
-------------------------------------------------------------------------------
Tabbed by: Dobo6
Email: Random_paulio@hotmail.com

Tiki Taanes officil website- http://www.tikitaane.co.nz/

theres also a small solo - the tabs located under always on my mind tab

Tuning:Eadgbe

Chords:

    F#m         E         Bm          D         E
e|----9----------4----------2----------2---------4-----------------------|
B|---10----------5----------3----------3---------5-----------------------|
G|---11----------4----------4----------2---------4-----------------------|
D|---11----------6----------4----------4---------6-----------------------|
A|----9----------7----------2----------5---------7-----------------------|
E|----9----------4----------2----------2---------4-----------------------|

General strum pattern:

For All chords(execpt every 2nd G, and one E see below for details)
e|----o---x-----o---o-------|
B|----o---x-----o---o-------|
G|----o---x-----o---o-------|
D|----o---x-----o---o-------|
A|----o---x-----o---o-------|
E|----o---x-----o---o-------|
      v   ^     v   ^

G(*) indicates for that G strum just two down strums:

e|----3---3-----------------|
B|----3---3-----------------|
G|----4---4-----------------|
D|----5---5-----------------|
A|----5---5-----------------|
E|----3---3-----------------|
      v   v

E(*) indicates for that E its more muted than usual (only happens once):
e|----4---x-----x---x-------|
B|----5---x-----x---x-------|
G|----4---x-----x---x-------|
D|----6---x-----x---x-------|
A|----7---x-----x---x-------|
E|----4---x-----x---x-------|
      v   ^     v   ^

-INTRO-
  F#m
e|-9--------------------|
B|-10----9----8-7-5-----|
G|-11--11---------------|
D|-11-11----------------|
A|-9--------------------|
E|-9--------------------|

Ohhhhhhh

E
Ohhh-oh,

-VERSE 1-

F#m   E   Bm
     Yea,

       D           E    F#m
Your Always on my mind, girl,

E(*)           Bm               D E
Don't you know your always,

F#m             E             Bm
I remember when, when  first met you,

D                    E
I knew just what to do,

F#m                    E
I had to get to know,

Bm
To get to know you right,

    D                        E
Through the darkness your my light,

F#m
Your always on my mind,

E                     Bm
And I've been waiting so long,

D                    E
For you I wrote this song, girl,

F#m                       E             Bm
You dont know what you've got, untill your world has gone,

D                    E
this is why our love is strong,

-CHORUS-

Bm                      D
Girl You got me singing with some melody,

A
Your always on my mind,

G
This is what you do to me,

Bm                      D
Girl you got me singing with some harmoney,

A
Forever your my queen,

G(*)
And baby girl im your king,

-SOLO-

-VERSE 2-
F#m              E
I am not afraid,

Bm                                 D         E
Afraid to say the words, even if my brothers heard,

F#
Because of what you make,

E               Bm
And what you mean to me,

D              E
You have given everything,

F#m                 E
You would change my life,

Bm           E
More than you ever know,

                      D     E
This is why I have to show, Girl,

F#m           E
That you are everthing,

Bm
And everthing to me,

D                    E
Baby girl I hope you stay,

-CHORUS-

Bm                      D
Girl You got me singing with some melody,

A
Your always on my mind,

G
This is what you do to me,

Bm                      D
Girl you got me singing with some harmoney,

A
Forever your my queen,

G(*)
And baby girl im your king,

-VERSE 3-

F#m         E                 Bm
Your always on my mind girl,

D           E     F#m
Well dont u know, that your always,

E                           Bm       D E
Your always on my mind girl,           yea

F#m         E                 Bm
Your always on my mind girl,

D           E     F#m
Well dont u know, that your always,

E                           Bm       D E
Your always on my mind girl,           yea


===============================================================================
Добавлено: 15.05.2012
Другие материалы по этой песне:
  • Аккорды и текст

Страница создана 14.05.2012
http://primanota.ru/tiki-taane/always-on-my-mind-chords.htm
Привет, Гость.
Предлагаем пройти революционный курс по гитаре.
Подарок от PrimaNota.Ru, забирай!