PrimaNota.ru - самый крупный в мире бесплатный архив песенных текстов, аккордов, табулатур и нот


Tijuana Panthers - Cherry Street - таба, бас-таба, видео

Регистрация Запомнить меня
Войти через:  Facebook Google Twitter Vk Yandex Mail.ru

Tijuana Panthers - Cherry Street - таба, бас-таба, видео

Печатать
Просмотров: 112
Уроки эстрадного вокала в Санкт-Петербурге
-------------------------------------------------------------------------------
                             Cherry Street - Tijuana Panthers
-------------------------------------------------------------------------------
Tabbed by: Harry

Tuning: Standard Tuning: EADGBe

Intro: Played once in the beginning 
e|---------------------------------------------------------------------------|
B|---------------------------------------------------------------------------|
G|---------------------------------------------------------------------------|
D|---------------------------------------------------------------------------|
A|---------------------------------------------------------------------------|
E|-----0-0-0000-55555h3------------------------------------------------------|

Lead Guitar
e|---------------------------------------------------------------------------|
B|---------------------------------------------------------------------------|
G|---------------------------------------------------------------------------|
D|-----------555-------77-5--------------------------------------------------|
A|----5h7-5h7----777---------------------------------------------------------|
E|-------------------5-------------------------------------------------------|

Repeats throughout the song
e|---------------------------------------------------------------------------|
B|---------------------------------------------------------------------------|
G|---------------------------------------------------------------------------|
D|---------------555-------77-5----------------------------------------------|
A|--7777--5h7-5h7----777-----------------------------------------------------|
E|-----------------------5---------------------------------------------------|

************************************

| /   slide up
| \   slide down
| h   hammer-on
| p   pull-off
| ~   vibrato
| +   harmonic
| x   Mute note
| b   Bend
| pb  Pre-bend
| br  Bend release
| pbr Pre-bend release
| brb Bend release bend

************************************
Добавлено: 15.10.2015
Другие материалы по этой песне:
  • Аккорды и текст

Страница создана 01.10.2015
http://primanota.ru/tijuana-panthers/cherry-street-chords.htm
Привет, Гость.
Предлагаем пройти революционный курс по гитаре.
Подарок от PrimaNota.Ru, забирай!