PrimaNota.ru - самый крупный в мире бесплатный архив песенных текстов, аккордов, табулатур и нот


Tijuana Panthers - 7th Seal - таба, видео

Регистрация Запомнить меня
Войти через:  Facebook Google Twitter Vk Yandex Mail.ru

Tijuana Panthers - 7th Seal - таба, видео

Печатать
Просмотров: 86
-------------------------------------------------------------------------------
                             7th seal - Tijuana Panthers
-------------------------------------------------------------------------------
Tabbed by: Ron Johnson
E-mail: k3nnethr.frog@gmail.com

After watching them live a few times I figured out how to play 7th seal.
I learned the solo by ear and its not that hard so have fun with the tab.
It uses these Basic chords through out the song:

Tuning: Standard

Verse/intro:
e|-------5---2---4--4--4-4-|
B|-------5---2---5--5--5-5-|
G|-------6---2---6--6--6-6-| x10
D|-------7---4---6--6--6-6-| 
A|-------7---4---4--4--4-4-|
E|----5--5---2---4--4--4-4-|

Chorus: be creative with the strumming/picking, even in the song its not exact, but keep the rhythm  
 ..Be careful............ who you will follow..             
e|-----2-2-2--2-2---2---2-----------2--22----2--2---2-2----|
B|-----2-2-2---2-2-2---2------------2--22--2--2--2--2------|
G|-----2-2-2----2--2-2-2------------2--22---2---2-2---2----| x3
D|-----4-4-4----4------4------------2--22------2----2------| 
A|-----4-4-4----4------4------------0--00------0----0------|
E|2-2--2-2-2----2------2-----------------------------------|
 
 ..This black and white board will be your plight  
e|-----2-2-2-------2----2--22---2----------5---------------|
B|-----2-2-2--------2--2----2----2---------5---------------|
G|-----2-2-2-----------2----2----2---------7---------------|
D|-----4-4-4-------4------------2----------7---------------|
A|-----4-4-4------4----4----4--4-----------5---------------|
E|-----2-2-2--------2----2---------------------------------|
 
Verse:
e|-------5---2---4--4--4-4-|
B|-------5---2---5--5--5-5-|
G|-------6---2---6--6--6-6-| x10
D|-------7---4---6--6--6-6-| 
A|-------7---4---4--4--4-4-|
E|----5--5---2---4--4--4-4-|

Chorus:
e|-----2-2-2--2-2---2---2-----------2--22----2--2---2-2----|
B|-----2-2-2---2-2-2---2------------2--22--2--2--2--2------|
G|-----2-2-2----2--2-2-2------------2--22---2---2-2---2----| x3
D|-----4-4-4----4------4------------2--22------2----2------| 
A|-----4-4-4----4------4------------0--00------0----0------|
E|2-2--2-2-2----2------2-----------------------------------|

 ..This black and white board will be your plight  
e|-----2-2-2-------2----2--22---2----------5---------------|
B|-----2-2-2--------2--2----2----2---------5---------------|
G|-----2-2-2-----------2----2----2---------7---------------|
D|-----4-4-4-------4------------2----------7---------------|
A|-----4-4-4------4----4----4--4-----------5---------------|
E|-----2-2-2--------2----2---------------------------------|

SOLO:

e|-----5--2--5--2--5--2--5--2------------------5--2--5--2--5--2-2----------|
B|------------------------------5--2----5-5-5----------------------5-------|
G|------------------------------------4------------------------------------|
D|-------------------------------------------------------------------------|
A|-------------------------------------------------------------------------|
E|-------------------------------------------------------------------------|

e|-----9--9--99---9--12-9--------------------------------------------------|
B|-----9--9--99---9-------12-9------------9--------------------------------|
G|-----------------------------11-9-11-11---11-----------------------------|
D|---------------------------------------------11--1111\-------------------|
A|-------------------------------------------------------------------------|
E|-------------------------------------------------------------------------|
-
e|-----5--2-----------------------------------------------|
B|----------5--2--------------2--2--2-2-------------------|
G|----------------4--2--4--4---4--------------------------|
D|--------------------------------------------------------|
A|--------------------------------------------------------|
E|--------------------------------------------------------|

e|---------------------------------4--4-4---------------------------------4--4-4----------|
B|---------------------------------5--5-5---------------------------------5--5-5----------|
G|---------------------------------4--4-4----------------------4--6p------4--4-4----------|
D|----------------4--7p--4--7p--4------------------------4--7--------6--------------------|
A|-----------4--7----------------------------------4--7-----------------------------------|
E|-----5--7----------------------------------5--7-----------------------------------------|

e|-----5--2-----------------------------------------------------9--9---------------------|
B|----------5--2--------------2--2--2-2-----2--2----3---3------9----9--------------------|
G|----------------4--2--4--4---4-----------2--2---4---4------/9------9\------------------|
D|---------------------------------------------------------------------------------------|
A|---------------------------------------------------------------------------------------|
E|---------------------------------------------------------------------------------------|

Chorus:
 ..Be careful............ who you will follow.. 
e|-----2-2-2--2-2---2---2-----------2--22----2--2---2-2----|
B|-----2-2-2---2-2-2---2------------2--22--2--2--2--2------|
G|-----2-2-2----2--2-2-2------------2--22---2---2-2---2----| x3
D|-----4-4-4----4------4------------2--22------2----2------| 
A|-----4-4-4----4------4------------0--00------0----0------|
E|2-2--2-2-2----2------2-----------------------------------|

 ..This black and white board will be your plight  
e|-----2-2-2-------2----2--22---2----------5---------------|
B|-----2-2-2--------2--2----2----2---------5---------------|
G|-----2-2-2-----------2----2----2---------7---------------|
D|-----4-4-4-------4------------2----------7---------------|
A|-----4-4-4------4----4----4--4-----------5---------------|
E|-----2-2-2--------2----2---------------------------------|

Verse:                      ends on this chord
e|-------5---2---4--4--4-4-|    |---5---|
B|-------5---2---5--5--5-5-|    |---5---|
G|-------6---2---6--6--6-6-| x4 |---6---|
D|-------7---4---6--6--6-6-|    |---7---|
A|-------7---4---4--4--4-4-|    |---7---|
E|----5--5---2---4--4--4-4-     |---5---|

************************************

| /   slide up
| \   slide down
| h   hammer-on
| p   pull-off
| ~   vibrato
| +   harmonic
| x   Mute note
| b   Bend
| pb  Pre-bend
| br  Bend release
| pbr Pre-bend release
| brb Bend release bend

************************************
Добавлено: 01.10.2015
Вам также может быть интересно:
Другие материалы по этой песне:
  • Аккорды и текст

Страница создана 01.10.2015
http://primanota.ru/tijuana-panthers/7th-seal-chords.htm
Привет, Гость.
Предлагаем пройти революционный курс по гитаре.
Подарок от PrimaNota.Ru, забирай!