PrimaNota.ru - самый крупный в мире бесплатный архив песенных текстов, аккордов, табулатур и нот


Tijuana No - Pobre De Ti - бас-таба, видео

Регистрация Запомнить меня
Войти через:  Facebook Google Twitter Vk Yandex Mail.ru

Tijuana No - Pobre De Ti - бас-таба, видео

Печатать
Просмотров: 89
Уроки эстрадного вокала в Санкт-Петербурге
Una muy buena cancion de tijuana no... creo que son las notas correctas
espero que les sea de ayuda mi version
http://www.youtube.com/watch?v=LOxckiTN3r4
Intro
G|---------------------|---------------------|
D|------9/10-9--9h10p9-|------9/10-9--9h10p9-|
A|-7-7-----------------|-7-7-----------------|
E|---------------------|---------------------|

G|--------|--------|--------|-----------|
D|--------|--------|--------|-----------|
A|-7-7--7-|--------|-7-7--7-|------10-9-|
E|--------|-7-7--7-|--------|-7-7-------|

G|---------------------|---------------------|
D|------9/10-9--9h10p9-|------9/10-9--9h10p9-|
A|-7-7-----------------|-7-7-----------------|
E|---------------------|---------------------|

G|--------|--------|--------|-----------|
D|--------|--------|--------|-----------|
A|-7-7--7-|--------|-7-7--7-|------10-9-|
E|--------|-7-7--7-|--------|-7-7-------|


G|-----9-7---|-----9-7-9---|
D|---------9-|-------------|x3
A|-7-7-------|-7-7---------|
E|-----------|-------------|

G|-----9-7---7-9-7-------|
D|---------9-------9-7---|
A|-7-7-----------------9-|
E|-----------------------|

G|------------------------|
D|------------------------|x4
A|-7-7--7-7--7-7--7-7-----|
E|--------------------7-7-|

G|----------|-------|-----------|
D|----------|-------|-----------|
A|-10-10-10-|-9-9-9-|-----------|
E|----------|-------|-10-10-10~~|

(silencio)

G|-----------|-----------|-----------|-----------|
D|------9----|------9----|-----------|-----------|x4
A|-7-10---10-|-7-10---10-|---10-9----|---10-9----|
E|-----------|-----------|-7------10-|-7------10-|

si no das el trancazo tu...
G|------------------|------------------|
D|------------------|------------------|x2
A|-77-777-777-77-10-|------------------|
E|------------------|-77-777-77-10-9-7-|

Pobre de ti
G|------------------|-----------------|
D|------------------|-----------------|
A|--77-777-777-77-7-|-----------------|
E|------------------|-77-777-777-77-7-|

Pobre de ti
G|-----------|-----------|-----------|-----------|
D|------9----|------9----|-----------|-----------|
A|-7-10---10-|-7-10---10-|---10-9----|---10-9----|
E|-----------|-----------|-7------10-|-7------10-|

si no das el trancazo tu...
G|------------------|------------------|
D|------------------|------------------|x2
A|-77-777-777-77-10-|------------------|
E|------------------|-77-777-77-10-9-7-|

Pobre de ti
G|-----------|-----------|-----------|-----------|
D|------9----|------9----|-----------|-----------|x2
A|-7-10---10-|-7-10---10-|---10-9----|---10-9----|
E|-----------|-----------|-7------10-|-7------10-|

G|-----------|------------------|-----------|--------------|
D|------9----|------9h10-9h10---|-----------|--------------|x2
A|-7-10---10-|-7-10-------------|---10-9----|---10-9-------|
E|-----------|------------------|-7------10-|-7------10-10-|

G|---------|---------|
D|---------|---------|
A|---------|-10-9----|
E|-777-777-|------10-|

G|------------------------|
D|------------------------|x4
A|-7-7--7-7--7-7--7-7-----|
E|--------------------7-7-|

G|----------|-------|-----------|
D|----------|-------|-----------|
A|-10-10-10-|-9-9-9-|-----------|
E|----------|-------|-10-10-10~~|

(silencio)

G|-----------|-----------|-----------|-----------|
D|------9----|------9----|-----------|-----------|x4
A|-7-10---10-|-7-10---10-|---10-9----|---10-9----|
E|-----------|-----------|-7------10-|-7------10-|

Estabas en la carcel...
G|------------------|------------------|
D|------------------|------------------|x2
A|-77-777-777-77-10-|------------------|
E|------------------|-77-777-77-10-9-7-|

Pobre de ti
G|------------------|------------------|
D|------------------|------------------|
A|-77-777-777-77-10-|------------------|
E|------------------|-77-777-77-10-9-7-|

Pobre de ti
G|-----------|-----------|-----------|-----------|
D|------9----|------9----|-----------|-----------|
A|-7-10---10-|-7-10---10-|---10-9----|---10-9----|
E|-----------|-----------|-7------10-|-7------10-|

Estabas en la carcel...
G|------------------|------------------|
D|------------------|------------------|x2
A|-77-777-777-77-10-|------------------|
E|------------------|-77-777-77-10-9-7-|

Pobre de ti
G|-----------|-----------|-----------|-----------|
D|------9----|------9----|-----------|-----------|x2
A|-7-10---10-|-7-10---10-|---10-9----|---10-9----|
E|-----------|-----------|-7------10-|-7------10-|

G|-----------|------------------|-----------|--------------|
D|------9----|------9h10-9h10---|-----------|--------------|x2
A|-7-10---10-|-7-10-------------|---10-9----|---10-9-------|
E|-----------|------------------|-7------10-|-7------10-10-|

G|---------|---------|
D|---------|---------|
A|---------|-10-9----|
E|-777-777-|------10-|

G|------------------------|
D|------------------------|x4
A|-7-7--7-7--7-7--7-7-----|
E|--------------------7-7-|

G|----------|-------|-----------|
D|----------|-------|-----------|
A|-10-10-10-|-9-9-9-|-----------|
E|----------|-------|-10-10-10~~|

G|---------------------|---------------------|
D|------9/10-9--9h10p9-|------9/10-9--9h10p9-|
A|-7-7-----------------|-7-7-----------------|
E|---------------------|---------------------|

G|--------|--------|--------|-----------|
D|--------|--------|--------|-----------|
A|-7-7--7-|--------|-7-7--7-|------10-9-|
E|--------|-7-7--7-|--------|-7-7-------|

G|---------------------|---------------------|
D|------9/10-9--9h10p9-|------9/10-9--9h10p9-|
A|-7-7-----------------|-7-7-----------------|
E|---------------------|---------------------|

G|--------|--------|--------|-----------|
D|--------|--------|--------|-----------|
A|-7-7--7-|--------|-7-7--7-|------10-9-|
E|--------|-7-7--7-|--------|-7-7-------|


G|-----9-7---|-----9-7-9---|
D|---------9-|-------------|x3
A|-7-7-------|-7-7---------|
E|-----------|-------------|

G|-----9-7---7-9-7--------|
D|---------9-------9-7----|
A|-7-7-----------------9~~|
E|------------------------|
Добавлено: 15.11.2013
Другие материалы по этой песне:

Страница создана 15.11.2013
http://primanota.ru/tijuana-no/pobre-de-ti-chords.htm
Привет, Гость.
Предлагаем пройти революционный курс по гитаре.
Подарок от PrimaNota.Ru, забирай!