PrimaNota.ru - самый крупный в мире бесплатный архив песенных текстов, аккордов, табулатур и нот


Tigers Jaw - Safe In Your Skin Where Am I - таба, видео

Регистрация Запомнить меня
Войти через:  Facebook Google Twitter Vk Yandex Mail.ru

Tigers Jaw - Safe In Your Skin Where Am I - таба, видео

Печатать
Просмотров: 95
Уроки эстрадного вокала в Санкт-Петербурге
Tigers Jaw - Safe in your Skin / Where Am I Cover

Some people have asked for the Tigers Jaw version of this tab. I used RIPsteggy's and fistfullofhate's tabs
from the Title Fight version as base and added the changes of the Feet First Productions video on youtube.
If you find any mistakes, please tell me. The strumming pattern is mostly easy to figure out if you watch
the video. Enjoy!

d#|------------------------0---------------|
A#|----------------0h3p0---0---------------| 
F#|---------0h2----------0-0----2----------| 
C#|-2-2-2-2-0h2------------2----2----------| x3 (he changed the rhythm slightly)
G#|-3-3-3-3-0--------------3---------------| 
D#|----------------------------------------|

d#|------------------------0----------------|
A#|----------------0h3p0---0----------------| 
F#|---------0h2----------0-0----------------| 
C#|-2-2-2-2-0h2------------2----------------| 
G#|-3-3-3-3-0--------------3---------2--3---| 
D#|----------------------------------0--1---|

d#|-----------------------------------------------------| 
A#|-----------------------------------------------------| 
F#|---0----------0--------------0----------0------------| 
C#|--7-7--9~----4-4----2-------7-7--9-----4-4----2------| x4
G#|--5-5--7~----5-5----3-------5-5--7-----5-5----3------| 
D#|--7-7--8--------------------7-7--8-------------------|   

d#|---------------------------------------------------------------------|
A#|---------------------------------------------------------------------|
F#|---4---4--------------------4---4------------------------------------|
C#|--------5------4b5b4-0------------5----------5s7-7-9-9-5-5-----------|
G#|3---3----------555-------2----2--------------------------------------|
D#|----------3-3------------0-------------3-3---------------------------|


Verse ("Another floor...") 
d#|---------------------------------------------------------------------| 
A#|---------------------------------------------------------------------| 
F#|5-5-555-5-9-9-9----5-5-555-5--4-4-4----------------------------------|
C#|5-5-555-5-9-9-9----5-5-555-5--2-2-2----------------------------------| 
G#|3-3-333-3-7-7-7----3-3-333-3--2-2-2----------------------------------| 
D#|------------------------------0-0-0----------------------------------|


Pre-Chorus ("Where am I?") 
d#|---------------------------------------| 
A#|---------------------------------------| 
F#|---------------------------------------| 
C#|5555/999999---5555/99999999------------| x2
G#|5555/999999---5555/99999999------------| 
D#|3333/777777---3333/77777777------------|

Chorus ("This strange routine") 
d#|------------------------------------------------------------------------------| 
A#|------------------------------------------------------------------------------| 
F#|00-0000-000-0000-00-000-------------------------------------------------------| 
C#|55-5555-555-5555-55-555-5-55555-----------------------------------------------| 
G#|33-3333-303-3333-33-033-2-22222-----------------------------------------------| 
D#|--------------------------00000-----------------------------------------------|

Riff/Bridge 
d#|------------------------------------0--------------------------------| 
A#|-----3p0--------0----------3p0-------3-------------------------------| 
F#|------------------0--------------------0-----------------------------| 
C#|2--2--------2---------2--2------------------------x-x-(2nd time)-----| x2
G#|3--3----3---2---------3--3--------2---------------x-x----------------| 
D#|-------------0---------------------0---------------------------------|

Verse
Pre-Chorus
Chorus
Riff/Bridge  x5

End on 

d#|------| 
a#|------| 
f#|--0---|  
c#|--2---| 
g#|--3---|
D#|------| 
Добавлено: 07.06.2016
Другие материалы по этой песне:
  • Аккорды и текст

Страница создана 07.06.2016
http://primanota.ru/tigers-jaw/safe-in-your-skin-where-am-i-chords.htm
Привет, Гость.
Предлагаем пройти революционный курс по гитаре.
Подарок от PrimaNota.Ru, забирай!