PrimaNota.ru - самый крупный в мире бесплатный архив песенных текстов, аккордов, табулатур и нот


Tigers Jaw - My Friend Morrissey - таба, видео

Регистрация Запомнить меня
Войти через:  Facebook Google Twitter Vk Yandex Mail.ru

Tigers Jaw - My Friend Morrissey - таба, видео

Печатать
Просмотров: 64
-----------------------------------------------------------------------------
                             MY FRIEND MORRISSEY - Tigers Jaw
-----------------------------------------------------------------------------
Tuning: Standard

Intro:
e|-----------------------------------------------------------|
B|-----------------------------------------------------------|
G|-------0--------4p0-0-0-------------0--------4p0-0-0-------|
D|-7p5-5-5--------5-----5-------7p5-5-5--------5-----5-------|
A|-3-----3--------3-----3-------3-----3--------3-----3-------|
E|-----------------------------------------------------------|

e|-----------------------------------------------------------|
B|--------------------------------------------3--3-3-3-3-3-3-|
G|-------0--------4p0-0-0-------------0-------2--2-2-2-2-2-2-|
D|-7p5-5-5--------5-----5-------7p5-5-5-------0--0-0-0-0-0-0-|
A|-3-----3--------3-----3-------3-----3----------------------|
E|-----------------------------------------------------------|
 |                                                           |
e|-----------------------------------------------------------|
B|-----------------------------------------------------------|
G|-2/4-4-4-----4--7/4-4-4----4--2/4-4-4----4--7--7-7-7-7-7-7-|
D|-----x-x-----x--x---x-x----x------x-x----x--x--x-x-x-x-x-x-|
A|-----2-2-----2--5/2-2-2----2------2-2----2--5--5-5-5-5-5-5-|
E|-----------------------------------------------------------|

Verse:
e|--------------------------------|
B|--------3---3-------------------|
G|-4---4--2---2-----4--4-------4--|
D|-5---5--0---0--5--5--5-------5--|
A|-5---5---------3--3--3-------3--|
E|-3---3--------------------------|

Interlude: (Thought about it on the ride home and when I got home)
e|--------------------------------------------------------------------------|
B|--------3---3---------------------------------------------3-3-------3-3---|
G|-0---0--2---2-----4-4-------4-4-------4-4-------4-4----2--2-2----2--2-2---|
D|-2---2--0---0--5--5-5----5--5-5----5--5-5----5--5-5----0--0-0----0--0-0---|
A|-2---2---------3--3-3----3--3-3----5--5-5----5--5-5----0--0-0----0--0-0---|
E|-0---0-----------------------------3--3-3----3--3-3----2--2-2----2--2-2---|


Bridge: (waiting holding, deeply open, skin on my skin, etc.)
e|---------------------------------|--|------------------------------|
B|---------------------------------|--|------------------------------|
G|----4--------4-------4--------4--|x3|----4------0----0-----4--4----|
D|-5--5-----5--5----5--5-----5--5--|--|-5--5---3--4----2-----5--5----|
A|-3--3-----3--3----5--5-----5--5--|--|-3--3---4--5----2-----5--5----|
E|------------------3--3-----3--3--|--|----------------0-----3--3----|


Guitar Lead:
e|----------------------------------------|
B|----------------------------------------|
G|-4----4--4------4---4--4--4-------4-----|
D|-5----5--5------5---5--5--5-------5-----|
A|-5----5--5------5---3--3--5-------5-----|
E|-3----3--3------3---------3-------3-----|
 |                                        |
e|----------------------------------------|
B|----------------3---5--3----------------|
G|-2/4--4--4----4---4-------4----4--4--4--|
D|----------------------------------------|
A|----------------------------------------|
E|----------------------------------------|

End on:
e|----------|
B|-0--------|
G|-0--------|
D|-2--------|
A|-3--------|
E|----------|
Добавлено: 04.01.2014
Другие материалы по этой песне:
  • Аккорды и текст

Страница создана 04.01.2014
http://primanota.ru/tigers-jaw/my-friend-morrissey-chords.htm
Привет, Гость.
Предлагаем пройти революционный курс по гитаре.
Подарок от PrimaNota.Ru, забирай!