PrimaNota.ru - самый крупный в мире бесплатный архив песенных текстов, аккордов, табулатур и нот


Tigers Jaw - I Saw The Wolf - аккорды и текст, таба, видео

Регистрация Запомнить меня
Войти через:  Facebook Google Twitter Vk Yandex Mail.ru

Tigers Jaw - I Saw The Wolf - аккорды и текст, таба, видео

Печатать
Просмотров: 274
Уроки эстрадного вокала в Санкт-Петербурге
I Saw The Wolf
Tigers Jaw
-----------------------------------------------------------------------------
                             I SAW THE WOLF - Tigers Jaw
-----------------------------------------------------------------------------
Tabbed by: Mean Mr Mustard
Email: Gotchristo@comcast.net

Tuning: Standard

Amazing song here. I submitted a guitar pro version earlier, but figured Id post it up 
here again just so more people could see.


INTRO:
G      Em        C       -      x4

VERSE: (see verse tab)
G                 Em                   C
I left most of my things on the floor
G            Em                C
A wild heart, I dont remember.
G                   Em                 C
A different place I dont want to go.
G            Em                C
When Im alone I howl loudly.


BRIDGE: (see bridge lead)
Em  - G  -    x2


VERSE: (see verse tab)
G      Em     C
              I cant promise that I let the right one in.
G      Em     C


BRIDGE:(see bridge lead)
Em  - G  -    x4


INTERLUDE: (see interlude lead)
G  -  C  -  Em  -  C    x4


OUTRO:
G      C           Em         C
Am I invisible now?
G            C               Em           C
I became the dust as it settled.
G         C                 Em          C
I saw the wolf in the storm.

G            Em          C
A native son a warm home am I alone?

BACK TO VERSE TAB HERE:
G       Em         C ~
Hello?




VERSE TAB:
  G                Em              C
e|----------------------------------------------------------------------------|
B|----------------------------------------------------------------------------|
G|-2-2-0-0-2-2-0-0---------------------0-0-----0-------0-0-----0--------------|
D|-0-0-0-0-0-0-0-0-4-4-2-2-4-4-2-2-2-2-2-2-2-2-2-2-2-2-2-2-2-2-2-2---|
A|-2-2-2-2-2-2-2-2-2-2-2-2-2-2-2-2-3-3-3-3-3-3-3-3-3-3-3-3-3-3-3-3---|
E|-3-3-3-3-3-3-3-3-0-0-0-0-0-0-0-0--------------------------------------------|
* Dont play those first two 2's on the G string the first time through


BRIDGE LEAD:
  Em                G
e|-----------------|----------------|
B|-----------------|----------------|
G|---9--10-10-9-9--|--9-12-12-9-9---|
D|---x--x--x--x-x--|--x-x--x--x-x---|
A|---7--8--8--7-7--|--7-10-10-7-7---|
E|-----------------|----------------|


INTERLUDE LEAD:
  G                 C              Em            C
e|------------------------------------------------------------|
B|------------------------------------------------------------|
G|-2-2-0-0-----0-00-2-4-2-0------0----4---5-4-----2---4-2--0--|
D|---------4-4---------------0-4----5---5-----5-0---0---------|
A|----------------------------h----------------h--------------|
E|------------------------------------------------------------|
*Throw in some slides here and there to make it sound more accurate
Добавлено: 06.07.2012
Другие материалы по этой песне:

Страница создана 23.06.2012
http://primanota.ru/tigers-jaw/i-saw-the-wolf-chords.htm
Привет, Гость.
Предлагаем пройти революционный курс по гитаре.
Подарок от PrimaNota.Ru, забирай!