PrimaNota.ru - самый крупный в мире бесплатный архив песенных текстов, аккордов, табулатур и нот


Tigers Jaw - Fake Death - таба, видео

Регистрация Запомнить меня
Войти через:  Facebook Google Twitter Vk Yandex Mail.ru

Tigers Jaw - Fake Death - таба, видео

Печатать
Просмотров: 86
-----------------------------------------------------------------------------
                             FAKE DEATH - Tigers Jaw
----------------------------------------------------------------------------
There's a lot of variation of how to play this song, but all the notes and chords should 
be included in this tab. This is how I interpreted it onto an acoustic, plus the lead 
parts over top.

Tuning: Standard


Intro:
e|----------------------------|--|----------------3--3-3-3-3----3------|
B|--3-3--3h0------------------|--|-7--7-7-7-7-7---3--3-3-3-3----0--3---|
G|----------2/4--0-0--0-0-2/4-|x3|-0--0-0-0-0-0---4--4-4-4-4----0--0---|
D|--2-2--2--2----2-2--2-2-x-~-|--|-x--x-x-x-x-x---5--5-5-5-5----2--2---|
A|--2-2--2--2----3-3--3-3-3-~-|--|-7--7-7-7-7-7---3--3-3-3-3----2--3---|
E|--0-0--0--0-----------------|--|------------------------------0------|
 |                                                                     |
e|----------------------------|--|-------------------------------------|
B|----------------------------|--|------------------------------0--~---|
G|--1111-11-1111-1212-12-1212-|x3|-11-11111111111-12-12121212---0--0---|
D|--x-x--x--x-x--x-x--x--x-x--|--|-x--x-x-x-x-x----x--x-x-x-x---2--2---|
A|--9-9--9--9-9--1010-10-1010-|--|-9--9-9-9-9-9---10-10101010---2--3---|
E|----------------------------|--|------------------------------0------|


Verse:x2
e|-----------------------------------------------3---------------|
B|-----------------------------------------------0--3----3----3--|
G|-------------------4---------------------------0--0----0----0--|x2
D|-5555555544444444555---------5555555544444444--2--2----2----2--|
A|-5555555555555555333---------5555555555555555--2--3----3----3--|
E|-3333333322222222------------3333333322222222--0---------------|
 | pm ... ... ... ...          ................                  |
 |                                                               |
e|---------------------------------------------------------------|
B|---------------------8-------------------------0--~----~-------|
G|------------------4/5--------------------------0--0----~-------|x2
D|-555555554444442/5-----------5555555544444444--2--2----~-------|
A|-----------------------------------------------2--3----~-------|
E|-----------------------------------------------0---------------|
   pm............              ................


e|--------------------|--|--3--------|
B|--------------------|--|--0--3-----|
G|----------000000000-|x4|--0--0-----|
D|---2222222222222222-|--|--2--2-----|
A|---2222222333333333-|--|--2--3-----|
E|---0000000----------|--|--0--------|
 |   pm...............               |
 |                                   |
e|---0000--------3333-|--|-----------|
B|-------11111111-----|--|--0--~-----|
G|--------------------|x4|--0--0-----|
D|--------------------|--|--2--2-----|
A|--------------------|--|--2--3-----|
E|--------------------|--|--0--------|
     pm..............

Intro:
e|----------------------------|--|
B|--3-3--3h0------------------|--|
G|----------2/4--0-0--0-0-2/4-|x4|
D|--2-2--2--2----2-2--2-2-x-~-|--|
A|--2-2--2--2----3-3--3-3-3-~-|--|
E|--0-0--0--0-----------------|--|

e|-------------------------------------------------------------|
B|-------------------------------------------------------------|
G|-11111111111111-12121212121212--141414141414--161616161612---|
D|-x-x-x-x-x-x-x--x-x-x-x-x-x-x---x-x-x-x-x-x---x-x-x-x-x-x----|
A|-9-9-9-9-9-9-9--10101010101010--121212121212--141414141410---|
E|-------------------------------------------------------------|
  *comes in on 2nd time

Chorus:
e|-----------------------------------------------------|
B|-----------------------------------------------------|
G|-4--4--4-4-4-4---4--4-4-4-0--0-x-4--4-x-4--4--4-4-4--|x4
D|-5--5--5-5-5-5---5--5-5-5-2--2-x-5--5-x-5--5--5-5-5--|
A|-5--5--5-5-5-5---5--5-5-5-2--2-x-2--2-x-3--3--3-3-3--|
E|-3--3--3-3-3-3---3--3-3-3-0--0-x---------------------|
 |                                                     |
e|-----------------------------------------------------|
B|-----------------------------------------------------|
G|-12-12-12121212--12-12121212-12--7--7---9--9--9-9-9--|
D|-x--x--x-x-x-x---x--x-x-x-x--x---x--x---x--x--x-x-x--|
A|-10-10-10101010--10-10101010-10--5--5---7--7--7-7-7--|
E|-----------------------------------------------------|

Outro:
e|-------------------------------------|
B|-------------------------------------|
G|-4-4---4---4---4-4-------4-----------|
D|-5-5---5---5---5-5-------5-----------|
A|-3-3---3---3---3-3-------3-----------|
E|-------------------------------------|
 |                                     |
e|-------------------------------------|
B|---------------3---------------------|
G|---9---------4---4(hbr)--4-~~~~~~----|
D|---x------2/5------------------------|
A|---7---------------------------------|
E|-------------------------------------|
Добавлено: 19.10.2013
Другие материалы по этой песне:
  • Аккорды и текст

Страница создана 19.10.2013
http://primanota.ru/tigers-jaw/fake-death-chords.htm
Привет, Гость.
Предлагаем пройти революционный курс по гитаре.
Подарок от PrimaNota.Ru, забирай!