PrimaNota.ru - самый крупный в мире бесплатный архив песенных текстов, аккордов, табулатур и нот


Tiger Army - Sea Of Fire - текст песни, таба, видео

Регистрация Запомнить меня
Войти через:  Facebook Google Twitter Vk Yandex Mail.ru

Tiger Army - Sea Of Fire - текст песни, таба, видео

Печатать
Просмотров: 159
Song: Sea of Fire
Album: Ghost Tigers Rise
Tuning: Standard

The last track on Tiger Army's 3rd album. There's quite a bit
going on in this one. And I've even included the little solo that
fades at the end of the song!! There is already a tab and a powertab
on this. But the regular tab is very incomplete. The powertab is
accurate but I think the way I'm tabbing it is the way Nick plays
it. Let's go!!

INTRO: (it's a long intro too)
e|-----7~~\--------------------------------|
B|---8-------------------------------------|
G|-9---------------------------------------|
D|-----------------------9999999101010-9---|
A|-----------------------9999999101010-9---|
E|-----------------------77777778-8-8--7---|

e|-------7~-------------3-----|--------7~--------------|--------7~----------------------|
B|----8--8~------5--------3---|-----8--8~---7-7~-7-----|-----8--8~------5----5----------|
G|----9--9~--------5--------4-|-----9--9~---7-7~---7---|-----9--9~--------5----5----5---|
D|-9--9--9~---5------5--------|--9--9--9~---9-9~-----9-|--9--9--9~---5------5----5------|
A|-7--7-----------------------|--7--7------------------|--7--7--------------------------|
E|-7--------------------------|--7---------------------|--7-----------------------------|

e|-----------------------------|
B|-------------------7~~-------|
G|-------------------7~~-------|
D|-999999-101010-9-------------|
A|-999999-101010-9--------12\--|
E|-777777-8-8-8--7-------------|

e|-------7~------------3-----|--------7~-------------2-----|-------7~----------------------------|
B|----8--8~-----5--------3---|-----8--8~---------------3---|----8--8~----5-----5-----------------|
G|----9--9~-------5--------4-|-----9--9~---4-----7~------4-|----9--9~------5-----5----5----------|
D|-9--9--9~--5------5--------|--9--9--9~-----5---7~--------|-9--9--9~--5-----5-----5-----9-10-9~~|
A|-7--7----------------------|--7--7-----------------------|-7--7------------------------9-10-9~~|
E|-7-------------------------|--7--------------------------|-7---------------------------7-8--7~~|
        
        VERSE: (strums not exact)
e|-7--|-7------3--|-7--3----|-7---------------|
B|-8--|-8---5--3--|-8--3--7-|-8--5------------|
G|-9--|-9---5--4--|-9--4--7-|-9--5------------|
D|-9--|-9---5--5--|-9--5--7-|-9--5------------|
A|-7--|-7---3--5--|-7--5--5-|-7--3---9-9--9~--|
E|----|--------3--|----3----|--------7-11-7~--|

e|-7------3--|-7--3----|-7--------------------|
B|-8---5--3--|-8--3--7-|-8--5-----------------|
G|-9---5--4--|-9--4--7-|-9--5-----------------|
D|-9---5--5--|-9--5--7-|-9--5--------9-7-5-4--|
A|-7---3--5--|-7--5--5-|-7--3---9-9--9-7-5-4--|
E|--------3--|----3----|--------7-11-7-5-3-2--|

"There's something 'bout tonight. There's something in the air..."
e|-------------2------2-----2----------2~-|-----------2-----2------2~---------5~~--|
B|-5~------------3------3--------3-----3~-|-5~----------3-----3---------3-----3~~--|
G|-5~--------------4------4--------4---4~-|-5~------------4-----4---------4---4~~--|
D|-5~-------4-----------------------------|-5~------4------------------------------|
A|-3~-------------------------------------|-3~-------------------------------------|
E|----------------------------------------|----------------------------------------|

e|----------2-----2-----2----2--2~~-|------------|
B|-5~---------3-----3--------3--3~~-|------------|
G|-5~-----------4-----4------4--4~~-|-5---6-7--8-|
D|-5~----4--------------------------|-5---6-7--8-|
A|-3~-------------------------------|-3---4-5--6-|
E|----------------------------------|------------|

CHORUS:
"I'm gonna drown in a Sea of Fire"
e|-7----3~--------------------|-7----3~----------|-7---3~-------7------|-7---3~-----------|
B|-8----3~--------------7-----|-8----3~----------|-8---3~---------7----|-8---3~-----------|
G|-9----4~--------7-------7---|-9----4~----------|-9---4~----7------7--|-9---4~-----------|
D|-9----5~------9---9-------9-|-9----5~--9-7-5-4-|-9---5~--9---9-------|-9---5~--9-7-5-4--|
A|-7----5~----9-------9-------|-7----5~--9-7-5-4-|-7---5~--------------|-7---5~--9-7-5-4--|
E|------3~--------------------|------3~--7-5-3-2-|-----3~--------------|-----3~--7-5-3-2--|

POST CHORUS:
e|---------------|-------------|----------------|------------------7~---7\-------------------|
B|---------------|-------------|----------------|------------------8~---8\---8~--------------|
G|---------------|-------------|----------------|------------------9~---9\---9~--------------|
D|-2-2-2--7--8-8-|-2-2-2--8-7-8|--2-2-2--7--8-8-|-2-2-2--8-8-8-8---9~--------9~--------------|
A|-2-2-2--7--8-8-|-2-2-2--8-7-8|--2-2-2--7--8-8-|-2-2-2--8-8-8-8---7~--------7~--------------|
E|-0-3-0--5--6-6-|-0-3-0--6-5-6|--0-3-0--5--6-6-|-0-3-0--6-6-6-6------------------7~--8--7~--|

Repeat song starting from the VERSE

ENDING SOLO (turn up the volume to hear the timing)
e|-----7~-----------------------------------------------------------------------------------------|
B|---8~---------------------------------------------8--10--8--10--10(b)--10-8-10-8---------8\-----|
G|-9~-----------8----8-9--9/11---9---9(b)h7----7--9---------------------------------9-7-9------9~-|
D|---------9-9----9-------------------------9-----------------------------------------------------|
A|------------------------------------------------------------------------------------------------|
E|------------------------------------------------------------------------------------------------|

That's it for that album!!! Up next I will be starting on
Music From Regions Beyond. There's an excellent 
tab for "Prelude: Signal Return" so, I'll be jumping 
on "Hotprowl" next. Have fun!!


| /  slide up
| \  slide down
| h  hammer-on
| p  pull-off
| ~  vibrato
| +  harmonic
| x  Mute note
===============================================================================
Добавлено: 28.06.2012
Другие материалы по этой песне:

Страница создана 10.05.2012
http://primanota.ru/tiger-army/sea-of-fire-chords.htm
Привет, Гость.
Предлагаем пройти революционный курс по гитаре.
Подарок от PrimaNota.Ru, забирай!