PrimaNota.ru - самый крупный в мире бесплатный архив песенных текстов, аккордов, табулатур и нот


Tiger Army - Santa Carla Twilight - текст песни, таба, видео

Регистрация Запомнить меня
Войти через:  Facebook Google Twitter Vk Yandex Mail.ru

Tiger Army - Santa Carla Twilight - текст песни, таба, видео

Печатать
Просмотров: 99
Уроки эстрадного вокала в Санкт-Петербурге
Song: Santa Carla Twilight
Album: Ghost Tigers Rise
Tuning: standard

4th track off of Tiger Army's 3rd album which is,
my personal favorite track on this record. There is
already a tab on this but is incomplete. I'm positive
on at least 95% of this. A lot going on on this song
so this might be a tall order for some beginners. I'm
gonna be putting as much detail as I can so you can get
the song right. Let's go!


INTRO
e|-5+--|
B|-5+--|
G|-5+--| this can be played at the beginning
D|-7+--| as a natural harmonic. But Nick
A|-7+--| uses an effect for this.
E|-5+--|

e|---------------------------------------------------------------------|
B|-----------------0------------------------------------0--------------|
G|---------------0---0~-------------------------------0---0~-----------|
D|-------7----------------3-3-3---5------------7-------------3---5-----|
A|-------7----3-----------3-3-3---5--2-3-2-----7---3---------3---5-----|
E|-12/1--5----------------1-0-1---3--3-3-3-----5-------------1---3-----|
        pm               pm***************    pm            pm****    

VERSE
e|-5---------------------3----------5------------------3---|
B|-5-------0-------------3----------5-------0----------3---|
G|-5-----0---0~--2-2-2---4----------5-----0---0~---2---4---|
D|-7-------------3-3-3---5----------7--------------3---5---| X2
A|-7---3---------3-3-3---5--2-3-2---7---3----------3---5---|
E|-5-------------1-0-1---3--3-3-3---5--------------1---3---|

e|-------------0-0-0--|
B|-------------0-0-0--|
G|-------------0-0-0--|
D|-777777777---7-7-7--|x3
A|-777777777----------|
E|-555555555----------|
   pm*******

Repeat the VERSE after he says "And we kiss....."

then:
e|---------------5--|
B|---------------5--|
G|---------------5--|
D|-777777777-----7--|
A|-777777777-----7--|
E|-555555555-----5--|
  pm********

"Eternity......(eternity)
e|-1--0--1--0--5--0--5--0--1--0--1--0--5--0--5--0--|
B|-1--0--1--0--5--0--5--0--1--0--1--0--5--0--5--0--|
G|-2--2--2--2--5--0--5--0--2--2--2--2--5--0--5--0--|
D|-3--3--3--3--7--7--7--7--3--3--3--3--7--7--7--7--|
A|-3-----3-----7-----7-----3-----3-----7-----7-----|
E|-1-----1-----5-----5-----1-----1-----5-----5-----|

                                                                     
e|---------------------------5--0--5--0-------------------------111111111--3--|
B|---------------------------5--0--5--0-------------------------111111111--3--|
G|-5-555-5-555-5-555-5-555---5--0--5--0---5-555-5-555-5-555-5---222222222--4--|
D|-5-555-5-555-5-555-5-555---7--7--7--7---5-555-5-555-5-555-5---333333333--5--|
A|-3-333-3-333-3-333-3-333---7-----7------3-333-3-333-3-333-3---333333333--5--|
E|---------------------------5-----5----------------------------111111111--3--|
     ***   ***   ***   ***                  ***   ***   ***     *********  *

"In Santa Carla...."
e|-----------------------------------------------------------------|
B|---------------------0-----------------------------0-------------|
G|-------------------0---0~------------------------0---0~----------|
D|-------------7------------3-3-3--5----------7-----------5--------|
A|-------------7---3--------3-3-3--5--2-3-2---7--3--------5---2~~--|
E|-------------5------------1-0-1--3--3-3-3---5-----------3---3~~--|

SOLO: (another one of my favorites)
e|---------------------------------------------------------------------|
B|---------------------------------------------------------------------|
G|---------------------------------------------------------------------|
D|------------2~-0----2--3--3/5--3--2----------------------------------|
A|-5-3-2-0~---------3--------------------3---3---3--3/5--3--2--3--2----|
E|-------------------------------------1---1---1--------------------3--|

e|---------------------------------------------------------------------|
B|---------------------------------------------------------------------|
G|---------------------------------------------------------------------|
D|------2---2---2-----2--3--3/5--3--2----------------------------------|
A|----0---0---0-----3--------------------3---3---3--3/5--3--2--3--2----|
E|-------------------------------------1---1---1--------------------3--|

e|-----------------------------------------------------------------------------|
B|-----1-----0--------------1------0------------------5------------------------|
G|-------2-----2-----2--------2------2----2-------------5----5-------------5~~-|
D|--3------3-------3------3-----3-------3---------7-------7----7----7----7-----|
A|----------------------------------------------------------------7----7-------|
E|-----------------------------------------------------------------------------|

e|----------------------------------------------------------|
B|---1------0--------------1------0-------------------------|
G|-----2------2----2---------2------2----2------------------|
D|-3-----3-------3-------3-----3-------3------3--5----------|
A|--------------------------------------------3--5----------|
E|--------------------------------------------1--3---12/1---|
                                              ****
Repeat VERSE

then:
e|-----------------|     |------------------------------------------|
B|-----------------|     |-------------------------------0~---------|
G|-----------------|X4   |----------------------------0~----0~------|
D|----------7-9-10-|     |-5-7-8---3-5-6-------7--------------------|
A|----------8-8-8--|     |-6-6-6---4-4-4-------7---3~----------3~---|
E|-5-7-8-7---------|     |---------------12/1--5--------------------|

           "Eternity...."
e|------5~~-|
B|-----5----|
G|----5-----|
D|---7------|
A|--7-------|
E|-5--------|


whew! that's it guys! Might be a little
tough at first but it'll be very rewarding
once you get it. There is a perfect tab for
Ghostfire and a really good
one for Rose in the Devil's Garden
so i definitely won't need to tab
those. Up next is "Atomic"

| /  slide up
| \  slide down
| h  hammer-on
| p  pull-off
| ~  vibrato
| +  harmonic
| x  Mute note
===============================================================================
Добавлено: 29.05.2012
Другие материалы по этой песне:
  • Аккорды и текст

Страница создана 29.05.2012
http://primanota.ru/tiger-army/santa-carla-twilight-chords.htm
Привет, Гость.
Предлагаем пройти революционный курс по гитаре.
Подарок от PrimaNota.Ru, забирай!