PrimaNota.ru - самый крупный в мире бесплатный архив песенных текстов, аккордов, табулатур и нот


Tiger Army - Oogie Boogies Song - таба, видео

Регистрация Запомнить меня
Войти через:  Facebook Google Twitter Vk Yandex Mail.ru

Tiger Army - Oogie Boogies Song - таба, видео

Печатать
Просмотров: 207
Band: Tiger Army
Album:  Nightmare Revisited
Tuning: Standard

Alright guys. The final Tiger Army song that has been
released. This was recorded as a bonus track for the
"Nightmare Revisited" compilation. I thought they
performed it really well. If anyone could cover this song, 
it's definitely Tiger Army since they named their latest album
after a line spoken in The Haunted Mansion ride at Disneyland which 
also sponsors Nightmare Before Christmas. I'm about 90% sure
on this tab. Some parts in the chorus were a little unclear
due to the piano. Blah Blah right? 
Easy song to play here. Strums not exact. Let's go!!


INTRO:
   Bbm
e|-----|
B|-2---|
G|-3---| X 25
D|-3---|
A|-1---|
E|-----|

On the 26th strum:
   Bbm
e|-------------------|
B|-2~~~--------------|
G|-3~~~------3-------|
D|-3~~~---------5~~~-|
A|-1~~~--------------|
E|-------------------|

VERSE 1:
"Well, well well. What have we here?....."
   Dbm          Bbm         Em   Ebm
e|-----------------------------------|
B|-5------------2----------8-8--7-7--|
G|-6-X16--------3-X4-------9-9--8-8--|
D|-6------------3----------9-9--8-8--|
A|-4------------1----------7-7--6-6--|
E|-----------------------------------|

CHORUS 1:
"You're joking, you're joking!....."

   Eb  B/Bb        Ab  Em
e|--------------|------------------|
B|--------------|------------0~~~--|
G|-8------------|--5---0-----0~~~--|
D|-8--9--8--X2--|--6---2-----------|
A|-6--9--8------|--6---2-----------|
E|----7--6------|--4---0-----------|

VERSE 2:
"When Mr. Oogie Boogie says......"

   Cm       Fm      Cm      G  F  Cm
e|-------------------------------------|
B|-4--------9-------4-------------4----|
G|-5--x16---10-x4---5-x8----------5----|
D|-5--------10------5------5--3---5----|
A|-3--------8-------3------5--3---3----|
E|-------------------------3--1--------|

CHORUS 2:
"Whoa! Whoa! Whoa! I'm the Oogie Boogie Man!!.."

    Fm                 Cm            Fm      Ab G   Cm
e|---------8~~-------------8~~---------8~-|-------------|
B|---------9~~-------------8~~---------9~-|---------4~--|
G|--------10~~-------------8~~--------10~-|---------5~--|
D|----10---------------10---------10------|--6--5---5~--|
A|-8----------------10----------8---------|--6--5---3~--|
E|----------------------------------------|--4--3-------|

Repeat VERSE 2 progression
Repeat CHORUS 2 progression

then:
   Dbm
e|-----|
B|-5---|
G|-6---|x16
D|-6---|
A|-4---|
E|-----|

Repeat CHORUS 1 progression


This riff comes in after he says "....I'm going to do my stuff...."

                     "ha!....yea!"
  Am   Fm  Abm Em     Db     D       Ab      A      
e|-5---1---4------|---------------------------------|
B|-5---1---4---0--|---------------------------------|
G|-5---1---4---0--|-----------------13-13---14~~----|
D|-7---3---6---2--|--11-11--12-12---13-13---14~~----|
A|-7---3---6---2--|--11-11--12-12---11-11---12~~----|
E|-5---1---4---0--|--9--9---10-10-------------------|

"whoa (whoa) whoa (whoa) whoa I'm the oogie boogie man!"

   Fm  Cm   Fm  Ab G   Cm       Ab   G    Cm
e|-8---8---8------------------|-------------3~~~--|
B|-9---8---9-----------4------|-------------4~~---|
G|-10--8---10----------5--X2--|---5----4----5~~~--|
D|-10--10--10---6--5---5------|---6----5----5~~~--|
A|-8---10--8----6--5---3------|---6----5----3~~~--|
E|-----8--------4--3----------|---4----3----------|

For those who want to play that nice little bassline afterwards.
e|------------|
B|------------|
G|------------|
D|------------|
A|------------|
E|-5-5--3-2-1-|

VERSE 3: (sounds like the songs shifts keys i think)

" The sound of rolling dice, to me......."
   Dm       Bbm   Dm      Ebm
e|------------------------------|
B|-6-------2-----6-------7------|
G|-7-X16---3-X4--7-X12---8-X8---|
D|-7-------3-----7-------8------|
A|-5-------1-----5-------6------|
E|------------------------------|

CHORUS 3:

"Oh brother, you're something...."
    F   Db   C        Bb Ab
e|-----------------|--------|
B|-----------------|--------|
G|--10-------------|--------|
D|--10--11--10--X2-|--8--6--|
A|--8---11--10-----|--8--6--|
E|------9---8------|--6--4--|

END WITH:

.....and YOU.....ain't.....goin.....no.....where!!"
          F#                F                Eb
e|-------------------------------------------6~~~~|
B|-------------------------------------------8~~~~|
G|-------------------------------------------7~~~~| play the hell
D|--------4~-----------------3~--------------7~~~~| out of the Bigsby
A|--------4~-----------------3~--------------6~~~~| if you have one!
E|--------2~-----------------1~-------------------|

Game. Set. Match. That's it guys. Every Tiger Army
song that has been released is available to learn. If I'm
missing one, please let me know but I doubt it. thanks to all
the Tiger Army fans who viewed and/or rated my tabs. really appreciate it
I hear Nick 13 should be coming out with a solo album. You know I'll get
the jump on tabbing that out =). In the mean time, I'm not done yet!!
I'll be tabbing out more songs for other bands like Reverend Horton Heat,
Koffin Kats, Quakes, and other "billy" style bands. Look out for them!
Have fun!!!


| /  slide up
| \  slide down
| h  hammer-on
| p  pull-off
| ~  vibrato
| +  harmonic
| x  Mute note
===========================================================================
Добавлено: 07.07.2012
Другие материалы по этой песне:
  • Аккорды и текст

Страница создана 07.07.2012
http://primanota.ru/tiger-army/oogie-boogies-song-chords.htm
Привет, Гость.
Предлагаем пройти революционный курс по гитаре.
Подарок от PrimaNota.Ru, забирай!