PrimaNota.ru - самый крупный в мире бесплатный архив песенных текстов, аккордов, табулатур и нот


Tiger Army - Hechizo De Amor - таба, видео

Регистрация Запомнить меня
Войти через:  Facebook Google Twitter Vk Yandex Mail.ru

Tiger Army - Hechizo De Amor - таба, видео

Печатать
Просмотров: 116
                     Hechizo De Amor by Tiger Army
-------------------------------------------------------------------------------
Tabbed by:diablo83
Email: rvasquez83@roadrunner.com

Tuning: Standard Tuning (EADGBe)

Very soothing and beautiful song by Tiger Army from their latest album: Music From 
Beyond. Sounds great if you have the luxury of a vibrato bar. It's in the key of Gminor. 
Okay, lets go!!

Intro/Verse
  Gminor/F
e|----------3--------------------1----------|
B|------------3------------1-------1--------|
G|------3-------3------------2-------2------|   >>>>>>>repeat until chorus. 
D|-----5----------5------------3-------3----|   Strum the Gmin barre after 
A|----5-------------------------------------|      every third time
E|-3---------------------1------------------|
   "Viajo a través de la noche..."


  Gminor
e|-3333-|
B|-3333-|
G|-3333-|>>>> right before going into the chourus
D|-5555-|
A|-5555-|
E|-3333-


Chorus: first part (strums not exact.listen for changes)
   A#/G/F/(some kind of D#sus chord)
e|------------------|
B|-----------88988--|
G|-3---------88888--|
D|-3--5--3---88888--|
A|-1--5--3---66666--|
E|----3--1----------|
 "Whoa whoa. Whoa whoa......"

Chorus: second part
   A#/Bb/G/F chord arpeggio
e|-------------------1----------|
B|---------------1-----2--------|
G|-3---------2-----2-----3------|
D|-3-5------3--------3-----3----|
A|-1-5-----3--------------------|
E|---3---1----------------------|
 "Un hechizo de amor para unirnos"

Chorus: third part
e|--------------------------|
B|--------8~---88988--------|
G|-3------8~---88888--------|
D|-3-5----8~---88888--------|
A|-1-5----6~---66666--------|
E|---3----------------------|
 "Dentro de la noche, y dentro de tu Corazón"

chorus: final. Repeat the chorus. Then Nick goes into this breakdown

  G/G#(Ab)/G/Em/F/G#(Ab)
e|-----------------|
B|-----------------|
G|-----------------|>>After that G#/Ab chord, Nick slides
D|-5-6-5-2-3-6-----|  the low E string up
A|-5-6-5-2-3-6-----|
E|-3-4-3-0-1-4///--|

little bridge right before the second verse:
e|---------3~----1------1------|
B|--------3~-------1------1----|
G|-------3~----------1------1--|
D|------5~---------------------|
A|-----5~----------------------|
E|-3--3~-----------------------|

Repeat Verse,chorus, and the breakdown after the chorus. Lets get into that nice solo!

Bridge right before solo:

e|--------------------------------------------|
B|--------------------------------------------|
G|-12~-10~-13~-12~-10~-13~-1212~-10~-13~-12~--|
D|-12~-10~-13~-12~-10~-13~-1212~-10~-13~-12~--|
A|-13~-11~-14~-13~-11~-14~-1313~-11~-14~-13~--|
E|--------------------------------------------|


Solo:
e|--10-----10----------8-------11-----10----10------8~---|
B|----11-----11----------9-------12-----11----11----9~---|
G|------/12----12----10----10------13-----12----12--10~--|
D|-------------------------------------------------------|
A|-------------------------------------------------------|
E|-------------------------------------------------------|

e|---10----10----------8-----11--------10~-----|
B|-----11----11----------9------12-----11~-----|
G|------/12----12---10-----10------13--12~-12~-|
D|-----------------------------------------12~-|
A|-----------------------------------------13~-|
E|---------------------------------------------|

Repeat Chorus and the breakdown after the chorus and end with this:

e|-3333---|
B|-3333---|
G|-3333---|
D|-5555---|
A|-5555---|
E|-3333---|

Done!! Let me know what you think. Thanks!

| /  slide up
| \  slide down
| h  hammer-on
| p  pull-off
| ~  vibrato
| +  harmonic
| x  Mute note
===============================================================================
Добавлено: 04.06.2012
Другие материалы по этой песне:
  • Аккорды и текст

Страница создана 04.06.2012
http://primanota.ru/tiger-army/hechizo-de-amor-chords.htm
Привет, Гость.
Предлагаем пройти революционный курс по гитаре.
Подарок от PrimaNota.Ru, забирай!