PrimaNota.ru - самый крупный в мире бесплатный архив песенных текстов, аккордов, табулатур и нот


Tiger Army - Fog Surrounds - текст песни, таба, бас-таба, видео

Регистрация Запомнить меня
Войти через:  Facebook Google Twitter Vk Yandex Mail.ru

Tiger Army - Fog Surrounds - текст песни, таба, бас-таба, видео

Печатать
Просмотров: 155
Tabbed by: diablo83
Email: rvasquez83@roadrunner.com

Tuning: Standard tuning.

This is the 3rd track of off Tiger Army's first album. 
Check out my other Tiger Army tabs! 
(Hechizo de Amor, Prelude: Nightfall, Devil Girl) 
Listen for the changes, strums NOT exact. 
If you have a vibrato bar, use it whenever you see the "~" symbol. 
And, no moving pinkie this time. =)


INTRO: F#/C#/A#m 

e|-2-----6~---6-----------------|
B|-2-----6~-----6------6--------|
G|-3--6--6~-------6------6------|
D|-4--6--8~----------------8----|
A|-4--4--8~---------------------|
E|-2-----6~---------------------|

VERSE:
    D#/B/D#/C#/B/A#/C#/B/A#....
e|-----7-----------------------------|
B|-----7-----------------------------|
G|--8--8--8--------------------------|
D|--8--9--8---11--9--8--11--9--8-----|
A|--6--9--6---11--9--8--11--9--8-----|
E|-----7-------9--7--6---9--7--6-----|
"In my room lying on my bed...."


e|----7--------------------------------------------------|
B|----7--------------------------------------------------|
G|-8--8--8-----------------------------------------------|
D|-8--9--8--11--9--8-11--9--8-11--9--8-8--888--8~---8-8--|
A|-6--9--6--11--9--8-11--9--8-11--9--8-8--888--8~---8-8--|
E|----7------9--7--6--9--7--6--9--7--6-6--666--6~---6-6--|
"Lady Luck has left me...."               *** 

B/C#/A#m slide to Am
CHORUS:
e|--2-----666\5/6--|
B|--2-----666\5/6--|
G|--3--6--666\5/6--|
D|--4--6--888\7/8--|
A|--4--4--888\7/8--|
E|--2-----666\5/6--|
"I dream the fog surrounds me..."


e|-2-----6~-------------6~~--|
B|-2-----6~-------------6~~--|
G|-3--6--6~-----6~---6-------|
D|-4--6--8~-----8~-----------|
A|-4--4--8~------------------|
E|-2-----6~------------------|
"It cloaks- it's all around me..."


e|-2-----6666\5/666-|
B|-2-----6666\5/666-|
G|-3--6--6666\5/666-|
D|-4--6--8888\7/888-|
A|-4--4--8888\7/888-|
E|-2-----6666\5/666-|
"You see this fog it frees me ..."

 B/C#/G#/A#m                    A#
e|-2-----------6~---------|------------|
B|-2-----------6~---------|------------|
G|-3--666------6~---------|------------|
D|-4--666-666--8~---------|-/88888888--|
A|-4--444-666--8~---------|-/88888888--|     
E|-2------444--6~---------|-/66666666--|
"I lie awake..."             ********

REPEAT VERSE

SOLO:
e|--/11-13-14-13-11-14-13-11--/11-13-14-13----11~--|
B|--/11-11-11-11-11-11-11-11--/12-12-12-12--12-----|
G|-------------------------------------------------|
D|-------------------------------------------------|
A|-------------------------------------------------|
E|-------------------------------------------------|

e|--/11-13-14-13-11-14-13-11--/11-13-14-13-11----11~--|
B|--/11-11-11-11-11-11-11-11--/12-12-12-12-12-12-12~--|
G|----------------------------------------------------|
D|----------------------------------------------------|
A|----------------------------------------------------|
E|----------------------------------------------------|

e|-/11---9~----/11------11-9--------/11---17~---/11---14-----11\---13-|
B|-/11--10~----/11--10~------10~----/11---------/11------11--------11-|
G|--------------------------------------------------------------------|
D|--------------------------------------------------------------------|
A|--------------------------------------------------------------------|
E|--------------------------------------------------------------------|

REPEAT CHORUS

e|-------2---------6/5\6---2-------------6~--------6~|
B|-------2---------6/5\6---2-------------6~-------6~-|
G|--666--3--6------6/5\6---3--666--------6~------6~--| slowly pick that last 
D|--666--4--6--6---8/7\8---4--666--666---8~-----8~---| chord. 
A|--444--4--4--6---8/7\8---4--444--666---8~----8~----|
E|-------2-----4---6/5\6---2-------444---6~---6~-----|
 
above is the last few seconds of the song right before he says "In the chill of its caress.."


That's it for that! Let me know what you think 
I have a goal to tab ALL Tiger Army songs that are not
already posted and/or are posted but, NOT complete. 


| /  slide up
| \  slide down
| h  hammer-on
| p  pull-off
| ~  vibrato
| +  harmonic
| x  Mute note
===============================================================================
Добавлено: 29.05.2012
Другие материалы по этой песне:

Страница создана 20.04.2012
http://primanota.ru/tiger-army/fog-surrounds-chords.htm
Привет, Гость.
Предлагаем пройти революционный курс по гитаре.
Подарок от PrimaNota.Ru, забирай!