PrimaNota.ru - самый крупный в мире бесплатный архив песенных текстов, аккордов, табулатур и нот


Tiga Lilly - Wandering Hopelessly - таба, видео

Регистрация Запомнить меня
Войти через:  Facebook Google Twitter Vk Yandex Mail.ru

Tiga Lilly - Wandering Hopelessly - таба, видео

Печатать
Просмотров: 40
Tiga Lilly - Wandering Hopelessly


INTRO

e|--------------------------------|
B|-------3-----3-----3---------3--|
G|-0h2---------2-----2-------2----|
D|-0---0-----0-----0--------------|               
A|-----------------------0h3------|
E|--------------------------------|

e|--------------------------------|
B|-------3-----3-----3---------3--|
G|---0h2-------2-----2-------2----| for the rest of the intro part, he plays it like this
D|-0---------0-----0--------------|               
A|-----------------------0h3------|
E|--------------------------------|


- second guitar kicks in at [0:08]:

e|----0-----0---------------------|
B|-6-----6-----6---\3--1--3-------|
G|----5-----5------\2--2--3-------|
D|-0-----0-----0----0--0--0-------|
A|--------------------------------|
E|--------------------------------|


VERSE  1 [0:41] (second guitar stops here)
I am wandering hopelessly x2
To the meanwhile
I'm falling down x3



SOLO [1:13]

  /_______x8_________\  /__________________x2________________\

e|--------------------|---------------------------------------|--------------------------------|
B|--------------------|-----5--5---------------5h6-5----------|--------------------------------|
G|-----5--5--7--7--7--|-----------7--7--7------------7--7--7--|/12h14--14--14--14-12h14p12\9---|
D|-5h7----------------|-5h7----------------5h7----------------|--------------------------------|
A|--------------------|---------------------------------------|--------------------------------|
E|--------------------|---------------------------------------|--------------------------------|

                                                                                          

e|---------------------------------------------------------------------------------------------------------|
B|---------------------------------------------------------------------------------------------------------|
G|-12--12--12--12--12\9---7--7--7--7--5h7p5\4--5--5--5--5--5h7p5\4--5--5--5-----4h5p4\2--0--0--------------|
D|---------------------------------------------------------------------------------------------4--4--4-5-7-|
A|---------------------------------------------------------------------------------------------------------|
E|---------------------------------------------------------------------------------------------------------|


e|----------------|
B|----------------|
G|-0--0-----------|
D|-5--5--4--4--4--|
A|----------------|
E|----------------|


BACK TO MAIN PART [1:52]

(same as intro with both guitars)


VERSE 2 [2:10] (second guitar disappears)

I am wandering hopelessly x4 (last two times acapella)
Добавлено: 17.10.2015
Вам также может быть интересно:
Другие материалы по этой песне:
  • Аккорды и текст

Страница создана 17.10.2015
http://primanota.ru/tiga-lilly/wandering-hopelessly-chords.htm
Привет, Гость.
Предлагаем пройти революционный курс по гитаре.
Подарок от PrimaNota.Ru, забирай!