PrimaNota.ru - самый крупный в мире бесплатный архив песенных текстов, аккордов, табулатур и нот


Tiga Lilly - Waiting For You - таба, видео

Регистрация Запомнить меня
Войти через:  Facebook Google Twitter Vk Yandex Mail.ru

Tiga Lilly - Waiting For You - таба, видео

Печатать
Просмотров: 78
Tiga Lilly - Waiting For You

note: all chords finger placements are tabbed out below; (v) stands for version.


INTRO SOLO

      
   E               Bm              A             E              Bm             A

e|-------------------------------------------------------------------------------------|
B|-12--------------------------------------------12------------------------------------|
G|--------------9--9h11-----11br---11p9-------------------------9h11----11br---11p9----|
D|-------------------------------------------------------------------------------------| x2
A|-------------------------------------------------------------------------------------|
E|-------------------------------------------------------------------------------------|

   E6                              F#m/E              

e|-----------------------------------------------------------------|
B|-5-------5-------5-------5-------7-------7-------7-------7-------|
G|---6-4-6---6-4-6---6-4-6---6-4-6---6-4-6---6-4-6---6-4-6---6-4-6-|
D|-----------------------------------------------------------------| x2
A|-----------------------------------------------------------------|
E|-----------------------------------------------------------------|


   E6                              F#m/E

e|-4-------4-------4-------4-------5-------5-------5-------5-------|
B|-----------------------------------------------------------------|
G|---6-4-6---6-4-6---6-4-6---6-4-6---6-4-6---6-4-6---6-4-6---6-4-6-|
D|-----------------------------------------------------------------| 
A|-----------------------------------------------------------------|
E|-----------------------------------------------------------------|

   E6                              F#m/E

e|-4-------4-------4-------4-------5-------5-------5---------------|
B|---------------------------------------------------------7-------|
G|---6-4-6---6-4-6---6-4-6---6-4-6---6-4-6---6-4-6---6-4-6---6-4-6-|
D|-----------------------------------------------------------------| 
A|-----------------------------------------------------------------|
E|-----------------------------------------------------------------|

   E6                                  Dmaj7(v1)

e|-7--------7--------7--------7--------9---------9---------9---------9---------|
B|---10-9-----10-9-----10-9-----10-9-----10--------10--------10--------10------|
G|--------9--------9--------9--------9------11-9------11-9------11-9------11-9-|
D|-----------------------------------------------------------------------------| x2
A|-----------------------------------------------------------------------------|
E|-----------------------------------------------------------------------------|


[1:14]

Amaj7    Dmaj7(v2)       x4


PRE-vERSE [1:44]

E       \
Aaah     x2
Bm  A   /


VERSE 1 [1:58]
E                  C#m(v1)      A    \
Something tells me I'm on my own     / x4


INSTRUMENTAL [2:29] 

   E               Bm              A             E              Bm             A

e|-------------------------------------------------------------------------------------|
B|-12--------------------------------------------12------------------------------------|
G|--------------9--9h11-----11br---11p9-------------------------9h11----11br---11p9----|
D|-------------------------------------------------------------------------------------| x2
A|-------------------------------------------------------------------------------------|
E|-------------------------------------------------------------------------------------|


VERSE 2 [2:58]
E                  C#m          A    \
Something tells me I'm on my own     / x4


BREAK / SOLO [3:28]

e|-------------------------------------------------|
B|-------------------------------------------------|
G|-------------------------------------------------|
D|-2-4-2-----------2-4-2---------------------------| x2
A|-------4-2---0---------4-2-0---------------------|
E|-----------------------------2---0--------5------|


e|---------------------------------------------------------|
B|---------------------------------------------------------|
G|---------------------------------------------------------|
D|-2-4-2---6-4-----7-6-4-6-4-------6-4---4-----------------| x2
A|-------4-----7-4-------------7-------7---7---4---7-------|
E|---------------------------------------------------------|


OUTRO [3:59]

C#m(V2)  D
A

C#m7 Dmaj7(v3)  Asus2
Peo- ple   be   gone
C#m7    Dmaj7(v3) Asus2
Waiting on   my   own

                e|-----------------|
                B|-0------7/9------|
        (gt.2)  G|-----------------|
                D|-----------------|
                A|-----------------|
                E|-----------------|

C#m7  Dmaj7(V3)  Asus2
Lying on   the   path
C#m7 Dmaj7(v3)    Asus2
Wai- ting   for   you
                

__________________________________________________________________
CHORDS

 
   E   Bm   A    E6   F#m/E  Dmaj7(v1)  Amaj7   Dmaj7(v2)  C#m(v1)  C#m(v2) D   C#m7  Dmaj7(v3) Asus2

e|-7---7----5----4-----5-------5---------9--------9--------4---------9------10---4----5---------0----|
B|-9---7----5----5-----7-------7---------9--------7--------5---------9------10---5----7---------5----|
G|-9---7----6----6-----6-------6---------9--------7--------6---------9------11---4----6---------4----|
D|-9---9----7------------------0---------7--------7--------6---------11-----12---6----7---------7----|
A|-7---9----7----7-----7-----------------------------------4---------11-----12---4----5---------0----|
E|-0---7----5--------------------------------------------------------9------10-----------------------|
Добавлено: 17.10.2015
Другие материалы по этой песне:
  • Аккорды и текст

Страница создана 17.10.2015
http://primanota.ru/tiga-lilly/waiting-for-you-chords.htm
Привет, Гость.
Предлагаем пройти революционный курс по гитаре.
Подарок от PrimaNota.Ru, забирай!