PrimaNota.ru - самый крупный в мире бесплатный архив песенных текстов, аккордов, табулатур и нот


Tiga Lilly - Oh Life - таба, видео

Регистрация Запомнить меня
Войти через:  Facebook Google Twitter Vk Yandex Mail.ru

Tiga Lilly - Oh Life - таба, видео

Печатать
Просмотров: 44
Tiga Lilly - Oh Life


INTRO

e|-------------------------------------------------------------|
B|-------------------------------------------------------------|
G|-9-----------------------------------------------------------|
D|-9------------------------------------9----------------------|
A|-------------------------------------------------------------|
E|-------------------------------------------------------------|

e|--------------------------|
B|--------------------------|
G|--------------------------|
D|-6------------------------| from this chord on, the music ascends
A|-7------------------------| until it stays on a Gm for a while
E|--------------------------| then, the riff kicks in


RIFF

        B5       D

e|---------------------------|
B|------10-10----12----12pbr-|
G|-9-11-------11-------------| 
D|---------------------------| x8
A|---------------------------|
E|---------------------------|


VERSE 1 (only bass plays the B and D)
Feel like coming
In your eyes, feel it coming
Oh life, oh no no no


RIFF 
        B5       D

e|---------------------------|
B|------10-10----12----12pbr-|
G|-9-11-------11-------------| 
D|---------------------------| x4
A|---------------------------|
E|---------------------------|


CHORUS (riff continues) 
   B5   D  B5  D   \
Oh life             \
   B5   D  B5  D    x2
Oh no no no         /


BREAK  
   
   B5       D5

e|------------------------|
B|------------------------|
G|------------------------|
D|-4--4-----7------7--7---|
A|-2--2-----5------5--5---|
E|------------------------|

VERSE 2
   B5   D5  B5  D5   \
Oh life               \
   B5   D5  B5  D5    x2
Oh no no no          /


Wanting that you told me that you could have been as real as life       


OUTRO

B5    B5-A5-B5-A5 x7     \  
B5    D5                 /x4

- guitar stops playing, bass continues for a while with the B and D notes, until fade-out       
Добавлено: 17.10.2015
Другие материалы по этой песне:
  • Аккорды и текст

Страница создана 17.10.2015
http://primanota.ru/tiga-lilly/oh-life-chords.htm
Привет, Гость.
Предлагаем пройти революционный курс по гитаре.
Подарок от PrimaNota.Ru, забирай!