PrimaNota.ru - самый крупный в мире бесплатный архив песенных текстов, аккордов, табулатур и нот


Tiga Lilly - Indian Summer - аккорды и текст, таба, видео

Регистрация Запомнить меня
Войти через:  Facebook Google Twitter Vk Yandex Mail.ru

Tiga Lilly - Indian Summer - аккорды и текст, таба, видео

Печатать
Просмотров: 107
Уроки эстрадного вокала в Санкт-Петербурге
Indian Summer
Tiga Lilly
Tiga Lilly - Indian Summer
song: https://www.youtube.com/watch?v=X3RmtvxOhjU
note: lyric suggestions are welcome

INTRO
F#       \ 4x
E   B    /

VERSE 1
F#       E
You will know
    F#   E
How I, I-I
      F#           E 
am so free in your arms,
  F#    E 
tonight I
      F#
am so free
F#              E
For everything I love
          F#
Don't you know
                  E
To everything you love
               F#
Let go of everything
            E
Into us you ride

CHORUS
F#     E
B 
Let go of everything
F#             E
Let go of everything
B

INTERLUDE (let go of everything)
   F#                     E          B
e|-11---------11---------11---------11---------|\
B|----11-9-11----11-9-11----11-9-11----11-9-11-| 2x
G|---------------------------------------------|/
D|---------------------------------------------|
A|---------------------------------------------|
E|---------------------------------------------|

   A         C#         E          B
e|-11---------11---------11---------11---------|\
B|----11-9-11----11-9-11----11-9-11----11-9-11-| 2x
G|---------------------------------------------|/
D|---------------------------------------------|
A|---------------------------------------------|
E|---------------------------------------------|

Let go of everything

VERSE 2
F#       E
You will know
    F#   E
How I, I-I
      F#           E 
am so free in your arms,
  F#    E 
tonight I
      G#
am so free
F#   C#

OUTRO
G#        \ 8x
F#   C#   /

OUTRO RIFF (played on several rounds over the OUTRO chords)
   G#
e|--------------------------------------------------------|
B|--------------------------------------------------------|
G|-8--8--8p6--------6--8p6--------6--8p6--------6--8p6----|
D|-----------8--6h8--------8--6h8--------8--6h8--------8--|
A|--------------------------------------------------------|
E|--------------------------------------------------------|
   F#                         E
e|--------------------------------------------------------|
B|--------------------------------------------------------|
G|-8--8--8p6--------6--8p6--------6--8p6--------6--8p6----|
D|-----------8--6h8--------8--6h8--------8--6h8--------8--|
A|--------------------------------------------------------|
E|--------------------------------------------------------|
Добавлено: 17.10.2015
Другие материалы по этой песне:
  • Аккорды и текст

Страница создана 17.10.2015
http://primanota.ru/tiga-lilly/indian-summer-chords.htm
Привет, Гость.
Предлагаем пройти революционный курс по гитаре.
Подарок от PrimaNota.Ru, забирай!