PrimaNota.ru - самый крупный в мире бесплатный архив песенных текстов, аккордов, табулатур и нот


Tiga Lilly - Helicopter - таба, видео

Регистрация Запомнить меня
Войти через:  Facebook Google Twitter Vk Yandex Mail.ru

Tiga Lilly - Helicopter - таба, видео

Печатать
Просмотров: 89
Tiga Lilly - Helicopter

note: this is a cover from the band Deerhunter.


INTRO VERSE

- these are the intro chords:

   D#m7/C#          G#/D#      

e|-6------------------8-----|
B|-7------------------9-----|
G|-6------------------8-----|
D|--------------------------|
A|--------------------------|
E|--------------------------|


  D#m7/C#     G#/D#   D#m7/C#
I pray for us
      G#/D# D#m7/C#     G#/D#   D#m7/C#
Could you   pray for us? 
           G#/D# D#m7/C#     G#/D#   D#m7/C#
We know he loves you the best
           G#/D# D#m7/C#     G#/D#   D#m7/C#
We know he loves you the best


SOLO [0:25] (played by synth)

             G#                                     Bmaj7               F#    \
                                                                               \
e|-11-9-11-9-11-9-11-9-11-9-----------13---11-13-11-13-11-13-11-13-11------|    \
B|--------------------------9-11--------------------------------------9-11-|     \
G|-------------------------------------------------------------------------|     |
D|-------------------------------------------------------------------------|     |
A|-------------------------------------------------------------------------|     |
E|-------------------------------------------------------------------------|     |
                                                                                 |
             D#m                                    C#                            x2
                                                                                 |
e|-11-9-11-9-11-9-11-9-11-9-----------13---11-13-11-13-11-13-11-13-11------|     |
B|--------------------------9-11--------------------------------------9-11-|     |
G|-------------------------------------------------------------------------|     |
D|-------------------------------------------------------------------------|     /
A|-------------------------------------------------------------------------|    /
E|-------------------------------------------------------------------------|   /


REPEAT INTRO [0:53]

- use the same chords


VERSE 2 [1:17]
   G#/D# D#m7/C#     G#/D#   D#m7/C#
No one   cares for me
       G#/D# D#m7/C#  G#/D# D#m7/C#
I keep no    company
  G#/D# D#m7/C#    G#/D# D#m7/C#
I have  minimal needs
        G#/D#    D#m7/C#        G#/D# 
And now they are through with me




BREAKDOWN [1:45] 

   D#m

e|-----------------------------------------------------------------------------|
B|-7------6------7p6------6-----6---------------7--6------6--------------------|
G|-------------------8-------8-----6----8-6\5---------8-6---8-6-5-6-------6----|
D|------------------------------------------------------------------8----------|
A|-----------------------------------------------------------------------------|
E|-----------------------------------------------------------------------------|

   D#m       G#6/F D#m                                            G#6/F   D#m   

e|-----------------------------------------------------------------------------------|
B|-7------6------7p6------6----------------------------------------------------------|
G|-------------------8----------8---6-8p6\5-----5--6--8---8p6p5---5h6p5------5h6p5---|
D|-------------------------------------------8------------------8-------6-8--------8-|
A|-----------------------------------------------------------------------------------|
E|-----------------------------------------------------------------------------------|

   D#m             G#6/F                  D#m                       G#6/F

e|-----------------------------------------------------------------------------|
B|-7------6------7p6------6-----6---------------7--6------6--------------------|
G|-------------------8-------8-----6----8-6\5---------8-6---8-6-5-6-------6----|
D|------------------------------------------------------------------8----------|
A|-----------------------------------------------------------------------------|
E|-----------------------------------------------------------------------------|

   D#m             G#6/F                     D#m                          G#6/F  

e|-----------------------------------------------------------------------------------|
B|-7------6------7p6------6----------------------------------------------------------|
G|-------------------8----------8---6-8p6\5-----5--6--8---8p6p5---5h6p5------5h6p5---|
D|-------------------------------------------8------------------8-------6-8--------8-|
A|-----------------------------------------------------------------------------------|
E|-----------------------------------------------------------------------------------|

- play the chords like this:

   D#m                G#6/F

e|-6------------------8-----|
B|-7------------------9-----|
G|-8------------------10----|
D|--------------------------|
A|--------------------------|
E|--------------------------|


OUTRO [2:37]
D#m   F#     \
Oooooooooh    \
C#     Bmaj7   x2
Ooooooooooh   /


OUTRO VERSE [3:03]
D#m                        F#
Take my hand and pray with me
   C#                 Bmaj7
My final days in company
    D#m                    F#
The devil now has come for me
    C#                       Bmaj7
And helicopters circling the scene

Добавлено: 17.10.2015
Другие материалы по этой песне:
  • Аккорды и текст

Страница создана 17.10.2015
http://primanota.ru/tiga-lilly/helicopter-chords.htm
Привет, Гость.
Предлагаем пройти революционный курс по гитаре.
Подарок от PrimaNota.Ru, забирай!