PrimaNota.ru - самый крупный в мире бесплатный архив песенных текстов, аккордов, табулатур и нот


Tiesto - Maximal Crazy - таба, видео

Регистрация Запомнить меня
Войти через:  Facebook Google Twitter Vk Yandex Mail.ru

Tiesto - Maximal Crazy - таба, видео

Печатать
Просмотров: 61
     Maximal Crazy - Tiesto
-------------------------------------------------------------------------------
Tabbed by: Nik21
Play around with the timing - not a very hard song. 
Obviously different sound on guitar as compared to Tiesto's synth. 

Tuning: Standard (EADGBe)

Intro - 0:00 to 0:16  Repeat 2x ------Finish With \/                    
e|--------------------------------------------|-------|----------------------|
B|--------------------------------------------|-------|----------------------|
G|-----------------------2----------3-------4-|-4-4-4-|----------------------|
D|-----------------------2----------3-------2-|-4-4-4-|----------------------|
A|--------------------------------------------|-2-2-2-|----------------------|
E|2--2-4-5--5-4-2--2-0-2---2--2-0-2---2--2-0--|-------|----------------------|

Buildup 1 0:16 to 0:22 (Tremolo Picking)
e|---------------------------------------------------------------------------|
B|---------------------------------------------------------------------------|
G|-3---5---6---8---10---12---13---15---17---18---20^-------------------------|
D|---------------------------------------------------------------------------|
A|---------------------------------------------------------------------------|
E|---------------------------------------------------------------------------|

Body Part 1: 0:22 to 0:43 (until "Like this - Like that") Repeat 3x
e|-------------------------------------------------x-x-x---------------------|
B|-------------------------------------------------x-x-x---------------------|
G|------------------------2-----------3---------4--4-4-4---------------------|
D|-4--4-6-7--7-6-4--4---4-2--4--4---4-3--4--4---4--4-4-4---------------------|
A|-4--4-6-7--7-6-4--4---4-0--4--4---4----4--4---2--2-2-2---------------------|
E|-2--2-4-5--5-4-2--2-0-2----2--2-0-2----2--2-0----x-x-x---------------------|

Transition 1: 0:44 to 0:59 (Repeat 2x) -------------finish with \/
e|----------------------------------------------------------|-------|--------|
B|----------------------------------------------------------|-------|--------|
G|------------------------2----------3--------4-------------|-4-4-4-|--------|
D|-4--4-6-7--7-6-4--4-2-4---4--4-2-4---4--4-2---------------|-4-4-4-|--------|
A|----------------------------------------------------------|-------|--------|
E|----------------------------------------------------------|-------|--------|

Body Part 2: 1:14 to 1:36 Same Patterns as before


Main Part 1: 1:51 to 2:18 (Repeat 4x)
e|---------------------------------------------------------------------------|
B|-8--10--11--10--8-8-8--8--6-8---8--10--11--10--8-8-8-8--6-8--10------------|
G|---------------------------------------------------------------------------|
D|---------------------------------------------------------------------------|
A|---------------------------------------------------------------------------|
E|---------------------------------------------------------------------------|

Main Part 2: 2:27 to 2:56 (Repeat 4X) MAKE SURE TO MUTE B STRING WHEN NOT PLAYED
e|--------------------------------3--5--6--5---3-3-3--3----3--3-5------------|
B|-8--10--11--10--8-8-8--8--6-8--------------------------6-------------------|
G|-7--7---7---7---7-7-7--7--7-7---5--5--5--5---5-5-5--5--5-5--5-5------------|
D|---------------------------------------------------------------------------|
A|---------------------------------------------------------------------------|
E|---------------------------------------------------------------------------|



************************************
Добавлено: 02.06.2016
Другие материалы по этой песне:
  • Аккорды и текст

Страница создана 02.06.2016
http://primanota.ru/tiesto/maximal-crazy-chords.htm
Привет, Гость.
Предлагаем пройти революционный курс по гитаре.
Подарок от PrimaNota.Ru, забирай!