PrimaNota.ru - самый крупный в мире бесплатный архив песенных текстов, аккордов, табулатур и нот


Tierra Santa - Una Juventud Perdida - текст песни, таба, видео

Регистрация Запомнить меня
Войти через:  Facebook Google Twitter Vk Yandex Mail.ru

Tierra Santa - Una Juventud Perdida - текст песни, таба, видео

Печатать
Просмотров: 85
                             Una Juventud Perdida                               


                                                                    Tierra Santa
Guitar 1



                        Verse Riff 3                           
     H        Q         E            S S E  S S E  S S E  S S  
E||----------------||-----------------------------------------|
B||----------------||-----------------------------------------|
G||----------------||*----------------------------------------|
D||-----------5----||*--2------------2-2-2--2-2-2--2-2-2--2-2-|
A||-----------5----||---0------------0-0-0--0-0-0--0-0-0--0-0-|
E||-----------3----||-----------------------------------------|


  E  S S E  S S E  S S S S S S    E  S S E  S S E  S S E  S S  
-------------------------------|------------------------------|
-------------------------------|------------------------------|
-------------------------------|------------------------------|
--2--2-2-2--2-2-2--2-2---------|--2--2-2-2--2-2-2--2-2-2--2-2-|
--0--0-0-0--0-0-0--0-0---0-2---|--0--0-0-0--0-0-0--0-0-0--0-0-|
-----------------------3-----0-|------------------------------|


                                      Verse Riff 4      
  E  S S E  S S E  S S S S  S S       W                 
---------------------------------||--------------------|
---------------------------------||--------------------|
--------------------------------*||*-------------------|
--2--2-2-2--2-2-2---------------*||*--3----------------|
--0--0-0-0--0-0-0--3-2-3-2p-0----||---3----------------|
------------------------------3--||---1----------------|


  E  S S E  S S E  S S S S  S S      W                   W                 
---------------------------------||-------------------|-------------------|
---------------------------------||-------------------|-------------------|
--------------------------------*||-------------------|-------------------|
--2--2-2-2--2-2-2---------------*||--5----------------|--3----------------|
--0--0-0-0--0-0-0--3-2-3-2p-0----||--5----------------|--3----------------|
------------------------------3--||--3----------------|--1----------------|


                                                         Interlude              
  E  S S E  S S E  S S E  S S    E  E  H.                H         E  E  E  E   
------------------------------|---------------------|--------------------------|
------------------------------|---------------------|--------------------------|
------------------------------|---------------------|--7g9~--------L--7--L--9--|
------------------------------|---------------------|--------------------------|
--2--2-2-2--2-2-2--2-2-2--2-2-|--2--2---------------|--------------------------|
--0--0-0-0--0-0-0--0-0-0--0-0-|--0--0---------------|--------------------------|


   H         E  E  E  E       Q.      E  E.   E.  E     Q.      E  E.   E.  E   
-------------------------|--------------------7---8--|--8b------8--7-----------|
-------------------------|---------------8b----------|-----------------10---8--|
--10~--------L--9--L--7--|--7g9~------L--------------|-------------------------|
-------------------------|---------------------------|-------------------------|
-------------------------|---------------------------|-------------------------|
-------------------------|---------------------------|-------------------------|


    H         E  E  E  E      Q.      E  E.   E.  E     Q.      E  E.  E.   E   
--------------------------|-------------------7---8--|--8b------8--7---8---10--|
--------------------------|--------------8b----------|-------------------------|
--7g9~--------L--7--L--9--|--10~------L--------------|-------------------------|
--------------------------|--------------------------|-------------------------|
--------------------------|--------------------------|-------------------------|
--------------------------|--------------------------|-------------------------|


                               Verse Riff 3                              
   Q.       E  E.   E.  E      E           S S E  S S   E    S S E  S S  
--10br------8--7-----------|--------------------------------------------|
-------------------10---8--|--10~----------L-L-L--L-L-(10)~--L-L-L--L-L-|
---------------------------|--------------------------------------------|
---------------------------|---2-----------2-2-2--2-2---2----2-2-2--2-2-|
---------------------------|---0-----------0-0-0--0-0---0----0-0-0--0-0-|
---------------------------|--------------------------------------------|


  E  S S E  S S E  S S S S S S    E  S S E  S S E  S S E  S S  
-------------------------------|------------------------------|
-------------------------------|------------------------------|
-------------------------------|------------------------------|
--2--2-2-2--2-2-2--2-2---------|--2--2-2-2--2-2-2--2-2-2--2-2-|
--0--0-0-0--0-0-0--0-0---0-2---|--0--0-0-0--0-0-0--0-0-0--0-0-|
-----------------------3-----0-|------------------------------|


  E  S S E  S S E  S S S S  S S    E  S S E  S S E  S S E  S S  
--------------------------------|------------------------------|
--------------------------------|------------------------------|
--------------------------------|------------------------------|
--2--2-2-2--2-2-2---------------|--2--2-2-2--2-2-2--2-2-2--2-2-|
--0--0-0-0--0-0-0--3-2-3-2p-0---|--0--0-0-0--0-0-0--0-0-0--0-0-|
------------------------------3-|------------------------------|


  E  S S E  S S E  S S S S S S    E  S S E  S S E  S S E  S S  
-------------------------------|------------------------------|
-------------------------------|------------------------------|
-------------------------------|------------------------------|
--2--2-2-2--2-2-2--2-2---------|--2--2-2-2--2-2-2--2-2-2--2-2-|
--0--0-0-0--0-0-0--0-0---0-2---|--0--0-0-0--0-0-0--0-0-0--0-0-|
-----------------------3-----0-|------------------------------|


                                     Verse Riff 4      
  E  S S E  S S E  S S S S  S S      W                 
--------------------------------||--------------------|
--------------------------------||--------------------|
--------------------------------||*-------------------|
--2--2-2-2--2-2-2---------------||*--3----------------|
--0--0-0-0--0-0-0--3-2-3-2p-0---||---3----------------|
------------------------------3-||---1----------------|


  E  S S E  S S E  S S S S  S S      W                   W                 
---------------------------------||-------------------|-------------------|
---------------------------------||-------------------|-------------------|
--------------------------------*||-------------------|-------------------|
--2--2-2-2--2-2-2---------------*||--5----------------|--3----------------|
--0--0-0-0--0-0-0--3-2-3-2p-0----||--5----------------|--3----------------|
------------------------------3--||--3----------------|--1----------------|


  E  S S E  S S E  S S E  S S    E  E  Q    Q      Q       
------------------------------|---------------------------|
------------------------------|---------------------------|
------------------------------|-------------7br----7br----|
------------------------------|---------------------------|
--2--2-2-2--2-2-2--2-2-2--2-2-|--2--2---------------------|
--0--0-0-0--0-0-0--0-0-0--0-0-|--0--0---------------------|


  Solo                                                        
  Q.       S S E     S E.  S S    H           Q    S  S S  S  
-------------------------------|-------------------7----7h-8-|
-----------------------------8-|--8brb--------L------10------|
-------------7-7br-----7---9---|-----------------------------|
--7~------10--------10---------|-----------------------------|
-------------------------------|-----------------------------|
-------------------------------|-----------------------------|


   Q.        E   Q      E   E          Q.      E  S S S   S S  S S  S  
--10brb------L--10br----7--------|--------------------------7h-8-7h-8-|
---------------------------10br--|--8g10~------L--8---8h-10-----------|
---------------------------------|------------------9-----------------|
---------------------------------|------------------------------------|
---------------------------------|------------------------------------|
---------------------------------|------------------------------------|


  Q.      S  S Q     S. S.  S     Q       Q.      S  S  S   S  S  S  
--8b------8p-7-8~----7--8--10-|--10br-----L------12-13-15p-12----12-|
------------------------------|-------------------------------15----|
------------------------------|-------------------------------------|
------------------------------|-------------------------------------|
------------------------------|-------------------------------------|
------------------------------|-------------------------------------|


   Q.        E   S  S   S   S  S  S  S   S  
--15br-------L--15-13p-12h-13-15-13-15h-17-|
-------------------------------------------|
-------------------------------------------|
-------------------------------------------|
-------------------------------------------|
-------------------------------------------|


   S  S  S   S   S  S   S   S  S  S   S   S  S   S  S   S  
--19----17h-19h-20-17h-19h-20-22-20p-19p-17-19h-20-19h-20-|
-----20---------------------------------------------------|
----------------------------------------------------------|
----------------------------------------------------------|
----------------------------------------------------------|
----------------------------------------------------------|


                          |---3---|   |---3--|   |---3--|  
   E    E    E     Q      S   S   S   S  S   S   S  S   S  
--22b--22b--22br--22b----22p-20p-19p-17-------------------|
----------------------------------------22p-20p-19-18p-17-|
----------------------------------------------------------|
----------------------------------------------------------|
----------------------------------------------------------|
----------------------------------------------------------|


   E.    S   S   S  S  E     S  S  S  Q      
--------------------------------------------|
--18~---12h-13p-12--------------------------|
-------------------14-14br--12----12-14~----|
-------------------------------14-----------|
--------------------------------------------|
--------------------------------------------|


                SH                                                       
  S  S S  S S   Q     S S  S E  S S      Q      Q     S  S S S S  S S S  
------------------------------------|-----------------------------------|
----------------------------------8-|--<>8br----8~----------------------|
--L---------7-<>7b----L-7----7--9---|-------------------------------5---|
----10-7-10---------------10--------|--------------------------5h-7---7-|
------------------------------------|----------------------5-7----------|
------------------------------------|-----------------5h-8--------------|


  S  S  S S S  S  S  S S  S  S  S  S   S   S  S  
------------------------------------------------|
----------------------------10----10h-13p-10-13-|
--5h-7p-5-7-9p-7h-9-12-9-12----12---------------|
------------------------------------------------|
------------------------------------------------|
------------------------------------------------|


   E.    S  E     S  Q      E   S  S  S  
--------15------------------------------|
--15b------15br-----15~-----L-----15-17-|
-----------------17------------17-------|
----------------------------------------|
----------------------------------------|
----------------------------------------|


   E    Q.        S  S   S   S  S   S   S   S  
--15b--15br------15-13p-12p-10----------------|
-------------------------------13p-12h-13p-12-|
----------------------------------------------|
----------------------------------------------|
----------------------------------------------|
----------------------------------------------|


                                                        Interlude              
   S   S   S  S   S S S  S S  S S  S   S  S   S  S      H         E  E  E  E   
---------------------------------------------------|--------------------------|
--10h-12p-10---------------------------------------|--------------------------|
-------------12p-10-9-9-10-9----9------------------|--7g9~--------L--7--L--9--|
-----------------------------12---12p-10-12p-10----|--------------------------|
------------------------------------------------10-|---12---------L-----------|
---------------------------------------------------|--------------------------|


   H         E  E  E  E       Q.      E  E.   E.  E     Q.      E  E.   E.  E   
-------------------------|--------------------7---8--|--8b------8--7-----------|
-------------------------|---------------8b----------|-----------------10---8--|
--10~--------L--9--L--7--|--7g9~------L--------------|-------------------------|
-------------------------|---------------------------|-------------------------|
-------------------------|---------------------------|-------------------------|
-------------------------|---------------------------|-------------------------|


    H         E  E  E  E      Q.      E  E.   E.  E     Q.      E  E.  E.   E   
--------------------------|-------------------7---8--|--8b------8--7---8---10--|
--------------------------|--------------8b----------|-------------------------|
--7g9~--------L--7--L--9--|--10~------L--------------|-------------------------|
--------------------------|--------------------------|-------------------------|
--------------------------|--------------------------|-------------------------|
--------------------------|--------------------------|-------------------------|


   Q.       E  E.   E.  E      W                    W                 
--10br------8--7-----------|---------------------|-------------------|
-------------------10---8--|--10~----------------|--L----------------|
---------------------------|---------------------|-------------------|
---------------------------|---------------------|-------------------|
---------------------------|---------------------|-------------------|
---------------------------|---------------------|-------------------|


     feedback...                                                           
     <                                         -\1    -\1    -\1    -\1    
     W                    W                    Q      Q      Q      Q      
----------------------|--------------------|------------------------------|
--<>10----------------|---L----------------|--10\----10\----10\----10\----|
----------------------|--------------------|------------------------------|
----------------------|--------------------|------------------------------|
----------------------|--------------------|------------------------------|
----------------------|--------------------|------------------------------|


  W                   W                   W                 
-------------------|-------------------|-------------------|
-------------------|-------------------|-------------------|
-------------------|-------------------|-------------------|
-------------------|-------------------|-------------------|
-------------------|-------------------|-------------------|
-------------------|-------------------|-------------------|


    Outro                                            
    H         E  E  E  E      H         E  E  E  E   
--------------------------|-------------------------|
--------------------------|-------------------------|
--7g9~--------L--7--L--9--|--10~--------L--9--L--7--|
--------------------------|-------------------------|
--------------------------|-------------------------|
--------------------------|-------------------------|


    Q.      E  E.   E.  E     Q.      E  E.   E.  E   
--------------------7---8--|--8b------8--7-----------|
---------------8b----------|-----------------10---8--|
--7g9~------L--------------|-------------------------|
---------------------------|-------------------------|
---------------------------|-------------------------|
---------------------------|-------------------------|


    H         E  E  E  E      Q.      E  E.   E.  E     Q.      E  E.  E.   E   
--------------------------|-------------------7---8--|--8b------8--7---8---10--|
--------------------------|--------------8b----------|-------------------------|
--7g9~--------L--7--L--9--|--10~------L--------------|-------------------------|
--------------------------|--------------------------|-------------------------|
--------------------------|--------------------------|-------------------------|
--------------------------|--------------------------|-------------------------|


   Q.       E  E.   E.  E       H         E  E  E  E   
--10br------8--7-----------|--------------------------|
-------------------10---8--|--------------------------|
---------------------------|--7g9~--------L--7--L--9--|
---------------------------|--------------------------|
---------------------------|--------------------------|
---------------------------|--------------------------|


   H         E  E  E  E       Q.      E  E.   E.  E     Q.      E  E.   E.  E   
-------------------------|--------------------7---8--|--8b------8--7-----------|
-------------------------|---------------8b----------|-----------------10---8--|
--10~--------L--9--L--7--|--7g9~------L--------------|-------------------------|
-------------------------|---------------------------|-------------------------|
-------------------------|---------------------------|-------------------------|
-------------------------|---------------------------|-------------------------|


    H         E  E  E  E      Q.      E  E.   E.  E     Q.      E  E.  E.   E   
--------------------------|-------------------7---8--|--8b------8--7---8---10--|
--------------------------|--------------8b----------|-------------------------|
--7g9~--------L--7--L--9--|--10~------L--------------|-------------------------|
--------------------------|--------------------------|-------------------------|
--------------------------|--------------------------|-------------------------|
--------------------------|--------------------------|-------------------------|


   Q.       E  E.   E.  E       Q.      H         S S    Q.     H        E   
--10br------8--7-----------|--------------------------|---------------------|
-------------------10---8--|------------5~------------|---------------------|
---------------------------|----------------------7-5-|--4------5--------L--|
---------------------------|--------------------------|---------------------|
---------------------------|--5g7~--------------------|---------------------|
---------------------------|--------------------------|---------------------|


    Q.      H         S S    Q.     H        E       Q.      H         S S  
--------------------------|---------------------|--------------------------|
------------5~----------5-|--6------5--------L--|------------5~------------|
----------------------7---|---------------------|----------------------7-5-|
--------------------------|---------------------|--------------------------|
--5g7~--------------------|---------------------|--5g7~--------------------|
--------------------------|---------------------|--------------------------|


  Q.     E  E.  E.  E     Q.     E  E.  E.  E     E.  E.  E  E.  E.  E   
-----------------------|-----------------------|------------------------|
--------------------5--|--6------5-------------|--5---------------------|
--4------L--5---7------|------------7---5---7--|------7---5--4---5---4--|
-----------------------|-----------------------|------------------------|
-----------------------|-----------------------|------------------------|
-----------------------|-----------------------|------------------------|


    Q.      H         S S    Q.     H        E       Q.      H         S S  
--------------------------|---------------------|--------------------------|
------------5~------------|---------------------|------------5~----------5-|
----------------------7-5-|--4------5--------L--|----------------------7---|
--------------------------|---------------------|--------------------------|
--5g7~--------------------|---------------------|--5g7~--------------------|
--------------------------|---------------------|--------------------------|


  Q.     H        E       Q.      H         S S    Q.     E  E.  E.  E   
---------------------|--------------------------|-----------------------|
--6------5--------L--|------------5~------------|--------------------5--|
---------------------|----------------------7-5-|--4------L--5---7------|
---------------------|--------------------------|-----------------------|
---------------------|--5g7~--------------------|-----------------------|
---------------------|--------------------------|-----------------------|


  Q.     E  E.  E.  E     E.  E.  E  E.  E.  E       Q.      H         S S  
-----------------------|------------------------|--------------------------|
--6------5-------------|--5---------------------|------------5~------------|
------------7---5---7--|------7---5--4---5---4--|----------------------7-5-|
-----------------------|------------------------|--------------------------|
-----------------------|------------------------|--5g7~--------------------|
-----------------------|------------------------|--------------------------|


  Q.     H        E       Q.      H         S S    Q.     H        E   
---------------------|--------------------------|---------------------|
---------------------|------------5~----------5-|--6------5--------L--|
--4------5--------L--|----------------------7---|---------------------|
---------------------|--------------------------|---------------------|
---------------------|--5g7~--------------------|---------------------|
---------------------|--------------------------|---------------------|


    Q.      H         S S    Q.     E  E.  E.  E     Q.     E  E.  E.  E   
--------------------------|-----------------------|-----------------------|
------------5~------------|--------------------5--|--6------5-------------|
----------------------7-5-|--4------L--5---7------|------------7---5---7--|
--------------------------|-----------------------|-----------------------|
--5g7~--------------------|-----------------------|-----------------------|
--------------------------|-----------------------|-----------------------|


  E.  E.  E  E.  E.  E       Q.      H         S S    Q.     H        E    
------------------------|--------------------------|---------------------||
--5---------------------|------------5~------------|---------------------||
------7---5--4---5---4--|----------------------7-5-|--4------5--------L--||
------------------------|--------------------------|---------------------||
------------------------|--5g7~--------------------|---------------------||
------------------------|--------------------------|---------------------||




Duration Legend
---------------
W - whole
H - half
Q - quarter
E - 8th
S - 16th
T - 32nd
X - 64th
. - note dotted
|-n-|  - n-tuplets


Tablature Legend
----------------
L - tied note
x - dead note
g - grace note
(n) - ghost note
> - accentuded note
NH - natural harmonic
AH - artificial harmonic
TH - tapped harmonic
SH - semi harmonic
PH - pitch harmonic
h - hammer on
p - pull off
b - bend
br - bendRelease
pb - preBend
pbr - preBendRelease
brb - bendReleaseBend
\n/ - tremolo bar dip
\n - tremolo bar dive
-/n - tremolo bar Release up
/n\ - tremolo bar inverted dip
/n - tremolo bar return
-\n - tremolo bar Release down
S - shift slide
s - legato slide
/ -  slide into from below or out of upwards
\ -  slide into from above or out of downwards
~ - vibrato
W - wide vibrato
tr - trill
TP - tremolo picking
T - tapping
S - slap
P - pop
< - fade in
^ - brush up
v - brush down
Добавлено: 07.09.2013
Другие материалы по этой песне:

Страница создана 24.03.2012
http://primanota.ru/tierra-santa/una-juventud-perdida-chords.htm
Привет, Гость.
Предлагаем пройти революционный курс по гитаре.
Подарок от PrimaNota.Ru, забирай!