PrimaNota.ru - самый крупный в мире бесплатный архив песенных текстов, аккордов, табулатур и нот


Tierra Santa - Tu Vas Al Norte Y Yo Al Sur - таба, видео

Регистрация Запомнить меня
Войти через:  Facebook Google Twitter Vk Yandex Mail.ru

Tierra Santa - Tu Vas Al Norte Y Yo Al Sur - таба, видео

Печатать
Просмотров: 86
   Tierra santa - Tu vas al norte y yo al sur
                                        Tab solo 1 y solo 2 + Estribillo
                                                By dragonslayer 609

Solo Parte 1

2:57 --->  3:05

e------------------------------------------------------------|
b------------------------7---9-10-9--------------------------|
g------------------------------------------9-10--12---10-----|
d-------10-9-------------------------------------------------|
a----7-------10-7--------------------------------------------|
e------------------------------------------------------------|

3:07 ---> 3:14

e------------------------------------------------------------|
b------13(^)-12-----------15(^)-13-----------15(^)-13--------|
g--------------12------------------14-----------------14--14-|
d------------------------------------------------------------|
a------------------------------------------------------------|
e------------------------------------------------------------|

3:15 ---> 3:23

e----------------------------------------15-17-15-15---------|
b-----13-12----------15(^full bend)---/15------------18-17---|
g-----------12--------------------------------------------17-|
d--14----------14--------------------------------------------|
a------------------------------------------------------------|
e------------------------------------------------------------|


3:23 (parte rapida hacia parte lenta) ---> 3:29

e---------------------------------17(^)------------------------|
b---------------17-18-(18^)-18--------15--------13-13--12------|
g-------16-17-19--------------------------------------------12-|
d--17-19-------------------------------------------------------|
a--------------------------------------------------------------|
e--------------------------------------------------------------|

3:30 --> 3:34 final del solo 1

e----------------------------------------------------------------|
b--------12-13-15-17-18-<17>----17-18h-17------------------------|
g--12-14---------------------------------19h-17------------------|
d----------------------------------------------19(Vibrato largo--|
a----------------------------------------------------------------|
e----------------------------------------------------------------|

Solo Parte 2

e------------------------------------------|
b------------------------------------------|
g---7--9-10--10-10---9--7------7--9---7----|
d--------------------------10--------------|
a------------------------------------------|
e------------------------------------------|

e------------------------------------------|
b------------------------------------------|
g---7--9-10---10/12--10-9-7--9-10-9--7-----|
d------------------------------------------|
a------------------------------------------|
e------------------------------------------|

e------------------------------------------|
b------------------------------------------|
g---7--9-10--10-10---9--7------7--9---7----|
d--------------------------10--------------|
a------------------------------------------|
e------------------------------------------|

e------------------------------------------|
b------------------------------------------|
g----9-10------12-14-------16-17----19^----|
d------------------------------------------|
a------------------------------------------|
e------------------------------------------|


Estribillo

e---------------------------------------------|
b---------------------------------------------|
g------------------------5--------------------|        x2
d------------7--7---5----5---5--3-----5-------|
a------------7--7---5----3---5--3-----5-------|
e---5-5-5-5--5------3------0-3--1--0--3-------|


El solo esta casi perfecto, y suena muy bien,
te aconsejo que escuches la cancion
para sacarle el ritmo adecuado a cada parte,
espero que os guste.

LEYENDA:

<> = nota mantenida en el tiempo
/ = slide
^ = BEND
(15) =Nota Ligeramente golpeada
h= hammer on
Добавлено: 11.11.2013
Другие материалы по этой песне:
  • Аккорды и текст

Страница создана 11.11.2013
http://primanota.ru/tierra-santa/tu-vas-al-norte-y-yo-al-sur-chords.htm
Привет, Гость.
Предлагаем пройти революционный курс по гитаре.
Подарок от PrimaNota.Ru, забирай!