PrimaNota.ru - самый крупный в мире бесплатный архив песенных текстов, аккордов, табулатур и нот


Tierra Santa - Rumbo A Las Estrellas - таба, видео

Регистрация Запомнить меня
Войти через:  Facebook Google Twitter Vk Yandex Mail.ru

Tierra Santa - Rumbo A Las Estrellas - таба, видео

Печатать
Просмотров: 110
TIERRA SANTA - "RUMBO A LAS ESTRELLAS"

Intro:---------------------------C5.........---|X4
Junto con el teclado----------C5-A5-F5-----C5--| x2

Verso 1
 C5
Quisiera ser audaz
                                         A5
Navegar hacia el horizonte
 F5
Surcar las olas del mar
  C5
Sentir el viento en mi
                              A5
Dominar la tempestad
                    F5
Tener por rumbo las estrellas
Coro
    G5                                A5                F5
Buscar mi sueño donde el cielo aun sea azul
     G5                     A5                   F5          G5
Viajar sin miedo a naufragar y una bandera solo izar    libertad

RIFF 1
e|---------------------------|
B|---------------------------|
G|--7-9-10-12-10-9-12--------|
D|---------------------------|
A|---------------------------|
E| --------------------------|

   C5                                       A5
Olvidar que el destino me engaño
                            F5
Que mi vida se escapo
                                G5              F5    G5
Perdida entre los muros del destierro
   C5                                    A5
Olvidar mi tormenta y mi dolor
                               F5
Mi lamento y mi prisión
                                G5   F5    G5                 C5        A5
Salvar poniendo rumbo,      rumbo a las estrellas (x2)
     F5
Poder volar allí......

acompañamiento del punteo  C5   A5   F5

SOLO:
e|-----------------------------------------------------------12-10-8----------|
B|-------------------------13-12-8--|--15-13-8-10-8--|--8-10---------8--------|
G|--7/9--5-7-10-9-7-5-9-7-5---------------------------------------------------|
D|----------------------------------------------------------------------------|
A|----------------------------------------------------------------------------|
E| ---------------------------------------------------------------------------|

e|----------------------------------------------------------------------------|
B|-------------10-10-8-10-13-12-13-15-----------------------------------------|
G|--7-9-7---------------------------------------------------------------------|
D|---------10-----------------------------------------------------------------|
A|----------------------------------------------------------------------------|
E| ---------------------------------------------------------------------------|

verso 2
 G5                                 A5               F5
y aunque la noche se apodere de la luz
  G                  A5                F5
buscare mi libertad mas allá  de las estrellas

RIFF 1
e|---------------------------|
B|---------------------------|
G|--7-9-10-12-10-9-12--------|
D|---------------------------|
A|---------------------------|
E| --------------------------|

verso 3
C5                                                     A5
quisiera ver la mar elevarse hacia la luna
                 F5
mirar su danza escapar
  C5
poder volar allí
                             A5
acercarme a su amistad
                    F5
bailar con ellas aunque muera

coro
   G5                                A5                F5
Buscar mi sueño donde el cielo aun sea azul
    G5                     A5                   F5         G5
Viajar sin miedo a naufragar y una bandera solo izar  libertad

RIFF 1
e|------------------------------------------|
B|------------------------------------------|
G|--7-9-10-12-10-9-12-----------------------|
D|------------------------------------------|
A|------------------------------------------|
E| -----------------------------------------|

   C5                                       A5
Olvidar que el destino me engaño
                            F5
Que mi vida se escapo
                                G5              F5    G5
Perdida entre los muros del destierro
   C5                                   A5
Olvidar mi tormenta y mi dolor
                              Fa5
Mi lamento y mi prisión
                               G5    F5    G5                C5       A5
Salvar poniendo rumbo,    rumbo a las estrellas (x2)
     F5
Poder volar allí......

Coro final:   C5    A5    F5   hasta el final

Rumbo ,rumbo, rumbo a las estrellas
Poder volar allí
Rumbo a las estrellas
Rumbo a las estrellas
Volar a las estrellas.
Добавлено: 14.06.2012
Другие материалы по этой песне:

Страница создана 28.03.2012
http://primanota.ru/tierra-santa/rumbo-a-las-estrellas-chords.htm
Привет, Гость.
Предлагаем пройти революционный курс по гитаре.
Подарок от PrimaNota.Ru, забирай!