PrimaNota.ru - самый крупный в мире бесплатный архив песенных текстов, аккордов, табулатур и нот


Tierra Santa - Reconquista - текст песни, таба, видео

Регистрация Запомнить меня
Войти через:  Facebook Google Twitter Vk Yandex Mail.ru

Tierra Santa - Reconquista - текст песни, таба, видео

Печатать
Просмотров: 92
TIERRA SANTA - Reconquista (Legendario, 1999)

Tabulado por Javier Jiménez Blanco (Sant Andreu de la Barca, 
Barcelona), xjimenez@iec.es, 27/6/2000.

RIFF:

e|---------------------------------------------------------------------------|
B|---------------------------------------------------------------------------|
G|--9-------7---9------------------|--9-------7---5------------7^------------|
D|--9-------7---9---5p4-5p4--------|--9-------7---5--0--4--5-----------------|
A|--7--x-x--5---7------------7-5---|--7--x-x--5---3--------------------------|
E|---------------------------------------------------------------------------|
    E	    D   E                     E       D   C
					  
						  x2
e|--------------------------------------------------|------------------------|
B|--------------------------------------------------|------------------------|
G|--9-------7---9------------------5---7------------|---9--------------------|
D|--9-------7---9---5p4-5p4--------5---7------5\4---|---9------4-5-7--5-4----|
A|--7--x-x--5---7------------7-5---3---5------5\4---|---7-----------------7--|
E|-----------------------------------------0--3\2---|------------------------|
    E       D   E                  C   D      G Gb      E
      

VERSO (00:29):
			  x2
e|---------------------------------------------------------------------------|
B|---------------------------------------------------------------------------|
G|--9-----9-----9--7--9-----|--9-----9-----9--7--5--7------------------------|
D|--9-----9-----9--7--9-----|--9-----9-----9--7--5--7---4-5-7--5-4-----------|
A|--7 xxx 7 xxx-7--5--7 xxx-|--7 xxx 7 xxx 7--5--3--5--------------7---------|
E|---------------------------------------------------------------------------|

e|---------------------------------------------------------------------------|
B|---------------------------------------------------------------------------|
G|--9-----9-----9--7--5-----5----5----7----7-----5--7------------------------|
D|--9-----9-----9--7--5-----5----5----7----7-----5--7---4-5-7--5-4-----------|
A|--7 xxx 7 xxx-7--5--3 xxx 3xxx 3xxx 5xxx 5xxx  3--5--------------7---------|
E|---------------------------------------------------------------------------|    	            


ESTRIBILLO (00:53):

e|---------------------------------------------------------------------------|
B|---------------------------------------------------------------------------|
G|--9-------7---9------------------|--9-------7---5------------7^------------|
D|--9-------7---9---5p4-5p4--------|--9-------7---5--0--4--5-----------------|
A|--7--x-x--5---7------------7-5---|--7--x-x--5---3--------------------------|
E|---------------------------------------------------------------------------|
						  
						  
e|---------------------------------------------------------------------------|
B|---------------------------------------------------------------------------|
G|--9-------7---9------------------5------7------5------7--7-----------------|
D|--9-------7---9---5p4-5p4--------5------7------5------7--7-----------------|
A|--7--x-x--5---7------------7-5---3 ···· 5 ···· 3 ···· 5--5-----------------|
E|---------------------------------------------------------------------------|


RIFF (01:13) (Versión 2):

e|---------------------------------------------------------------------------|
B|---------------------------------------------------------------------------|
G|---------------------------------|--------------5------------7^------------|
D|--2-------5---7------------------|--2-------5---5--------------------------|
A|--2-------5---7---3p2-3p2--------|--2-------5---3--------------------------|
E|--0--x-x--3---5------------3-2------0--x-x--3------0--2--3-----------------|
    E       G   A                     E       G   C

						  x2
e|--------------------------------------------------|------------------------|
B|--------------------------------------------------|------------------------|
G|---------------------------------5---7------------|------------------------|
D|--2-------5---7------------------5---7------5\4---|---2------4-5-7--5-4----|
A|--2--x-x--5---7---3p2-3p2--------3---5------5\4---|---2-----------------7--|
E|--0-------3---5------------3-2-----------0--3\2---|---0--------------------|
    E       G   A                  C   D      G Gb      E 



SOLO (O1:25)


VERSO (02:44)


ESTRIBILLO (03:07)
     
Добавлено: 14.11.2013
Другие материалы по этой песне:

Страница создана 06.03.2012
http://primanota.ru/tierra-santa/reconquista-chords.htm
Привет, Гость.
Предлагаем пройти революционный курс по гитаре.
Подарок от PrimaNota.Ru, забирай!