PrimaNota.ru - самый крупный в мире бесплатный архив песенных текстов, аккордов, табулатур и нот


Tierra Santa - La Caja De Pandora - текст песни, таба, видео

Регистрация Запомнить меня
Войти через:  Facebook Google Twitter Vk Yandex Mail.ru

Tierra Santa - La Caja De Pandora - текст песни, таба, видео

Печатать
Просмотров: 82
Уроки эстрадного вокала в Санкт-Петербурге
                              La Caja De Pandora                                


                                                                    Tierra Santa
Guitar 1



            Intro                                                              
     S      H.           E  E     H.           E  E     Q    Q    E  E  E  E   
E||----|-----------------------|---------------------|------------------------|
B||----|--------------------5--|--6---------------5--|--6----8----6--5--------|
G||----|--5g7------------7-----|---------------7-----|------------------7--5--|
D||----|-----------------------|---------------------|------------------------|
A||----|-----------------------|---------------------|------------------------|
E||----|-----------------------|---------------------|------------------------|


  E  E  E  E  E  E  E  E     H.           E  E     H.           E  E   
--------------------------|---------------------|---------------------|
-----5--6--5-----------5--|------------------5--|--6---------------5--|
--7-----------7--5--7-----|--7------------7-----|---------------7-----|
--------------------------|---------------------|---------------------|
--------------------------|---------------------|---------------------|
--------------------------|---------------------|---------------------|


  Q    Q    E  E  E  E     E  E  E  E  E  E  E  E     H.           E  E   
------------------------|--------------------------|---------------------|
--6----8----6--5--------|-----5--6--5-----------5--|------------------5--|
------------------7--5--|--7-----------7--5--7-----|--7------------7-----|
------------------------|--------------------------|---------------------|
------------------------|--------------------------|---------------------|
------------------------|--------------------------|---------------------|


  H.           E  E     Q    Q    E  E  E  E     E  E  E  E  E  E  E  E   
---------------------|------------------------|--------------------------|
--6---------------5--|--6----8----6--5--------|-----5--6--5-----------5--|
---------------7-----|------------------7--5--|--7-----------7--5--7-----|
---------------------|------------------------|--------------------------|
---------------------|------------------------|--------------------------|
---------------------|------------------------|--------------------------|


  H.           E  E     H.           E  E     Q    Q    E  E  E  E   
---------------------|---------------------|------------------------|
------------------5--|--6---------------5--|--6----8----6--5--------|
--7------------7-----|---------------7-----|------------------7--5--|
---------------------|---------------------|------------------------|
---------------------|---------------------|------------------------|
---------------------|---------------------|------------------------|


  E  E  E  E  E  E  E  E     H.           E  E     H.           E  E   
--------------------------|---------------------|---------------------|
-----5--6--5-----------5--|------------------5--|--6---------------5--|
--7-----------7--5--7-----|--7------------7-----|---------------7-----|
--------------------------|---------------------|---------------------|
--------------------------|---------------------|---------------------|
--------------------------|---------------------|---------------------|


  Q    Q    E  E  E  E     E  E  E  E  E  E  E  E     H.           E  E   
------------------------|--------------------------|---------------------|
--6----8----6--5--------|-----5--6--5-----------5--|------------------5--|
------------------7--5--|--7-----------7--5--7-----|--7------------7-----|
------------------------|--------------------------|---------------------|
------------------------|--------------------------|---------------------|
------------------------|--------------------------|---------------------|


  H.           E  E     Q    Q    E  E  E  E     E  E  E  E  E  E  E  E   
---------------------|------------------------|--------------------------|
--6---------------5--|--6----8----6--5--------|-----5--6--5-----------5--|
---------------7-----|------------------7--5--|--7-----------7--5--7-----|
---------------------|------------------------|--------------------------|
---------------------|------------------------|--------------------------|
---------------------|------------------------|--------------------------|


  H.           E  E     H.           E  E     Q    Q    E  E  E  E   
---------------------|---------------------|------------------------|
------------------5--|--6---------------5--|--6----8----6--5--------|
--7------------7-----|---------------7-----|------------------7--5--|
---------------------|---------------------|------------------------|
---------------------|---------------------|------------------------|
---------------------|---------------------|------------------------|


  E  E  E  E  E  E  E  E     H.           E  E     H.           E  E   
--------------------------|---------------------|---------------------|
-----5--6--5-----------5--|------------------5--|--6---------------5--|
--7-----------7--5--7-----|--7------------7-----|---------------7-----|
--------------------------|---------------------|---------------------|
--------------------------|---------------------|---------------------|
--------------------------|---------------------|---------------------|


  Tempo decreasing...                                                       
  Q                   Q    E  E  E  E     E  E  E  E  E  E  E  E  H         
---------------------------------------|-----------------------------------|
--6-------------------8----6--5--------|-----5--6--5-----------5--L--------|
---------------------------------7--5--|--7-----------7--5--7--------------|
---------------------------------------|-----------------------------------|
---------------------------------------|-----------------------------------|
---------------------------------------|-----------------------------------|


  Riff A                                                              
  S      S S S    Q    E  S S Q    Q       S  S E  H        S  S S S  
---------------|------------------------|----------------------------|
--6p-----5-----|------------5-6----8----|--6p-5-------------6p-5-----|
-----------7-5-|--7----L--7-------------|-------7--L-------------7-5-|
---------------|------------------------|----------------------------|
---------------|------------------------|----------------------------|
---------------|------------------------|----------------------------|


  Q    E  S S Q    Q       Q    E  S  S Q    S  S S S    Q    E  S S Q    Q     
------------------------|--5----L---------------------|------------------------|
------------5-6----8----|----------8p-6-5----6p-5-----|------------5-6----8----|
--7----L--7-------------|-------------------------7-5-|--7----L--7-------------|
------------------------|-----------------------------|------------------------|
------------------------|-----------------------------|------------------------|
------------------------|-----------------------------|------------------------|


  S  S E  H.              Q    E  E  E.  E.  E     H        S  S S S S  S S S  
-----------------------|------------------------|-----------------------------|
--6p-5-----------------|-------------5---6---8--|--5--------8p-6-5---6p-5-----|
-------7--L------------|--5----L--7-------------|------------------7------7-5-|
-----------------------|------------------------|-----------------------------|
-----------------------|------------------------|-----------------------------|
-----------------------|------------------------|-----------------------------|


  Q    E  S S Q    Q       S  S E  H        S  S S S    Q    E  S S Q    Q     
------------------------|----------------------------|------------------------|
------------5-6----8----|--6p-5-------------6p-5-----|------------5-6----8----|
--7----L--7-------------|-------7--L-------------7-5-|--7----L--7-------------|
------------------------|----------------------------|------------------------|
------------------------|----------------------------|------------------------|
------------------------|----------------------------|------------------------|


  Q    E  S  S Q    S  S S S    Q    E  S S Q    Q       S  S E  H.            
--5----L---------------------|------------------------|-----------------------|
----------8p-6-5----6p-5-----|------------5-6----8----|--6p-5-----------------|
-------------------------7-5-|--7----L--7-------------|-------7--L------------|
-----------------------------|------------------------|-----------------------|
-----------------------------|------------------------|-----------------------|
-----------------------------|------------------------|-----------------------|


  Q    E  E  E.  E.  E     H        S  S S S S  S S S  
------------------------|-----------------------------|
-------------5---6---8--|--5--------8p-6-5---6p-5-----|
--5----L--7-------------|------------------7------7-5-|
------------------------|-----------------------------|
------------------------|-----------------------------|
------------------------|-----------------------------|


    Verse Riff                                                          
    E          S S E  S S E  S S E  S S    E  S S E  S S E  S S E  S S  
|---------------------------------------|------------------------------|
|---------------------------------------|------------------------------|
|*--------------------------------------|------------------------------|
|*--7-----------------------------------|------------------------------|
|---5----------5-5-5--5-5-5--5-5-5--5-5-|--5--5-5-5--5-5-5--5-5-5--5-5-|
|---------------------------------------|------------------------------|


  E  S S E  S S E  S S E  S S    W                 
------------------------------|-------------------|
------------------------------|-------------------|
------------------------------|-------------------|
------------------------------|--5----------------|
--5--5-5-5--5-5-5--5-5-5--5-5-|--3----------------|
------------------------------|-------------------|


  E  S S E  S S E  S S E  S S    E  S S E  S S E  S S E  S S  
------------------------------|------------------------------|
------------------------------|------------------------------|
------------------------------|------------------------------|
--7---------------------------|------------------------------|
--5--5-5-5--5-5-5--5-5-5--5-5-|--5--5-5-5--5-5-5--5-5-5--5-5-|
------------------------------|------------------------------|


  H        H           E  S S E  S S E  S S E  S S      H        H         
--------------------|-------------------------------||--------------------|
--------------------|-------------------------------||--------------------|
--------------------|------------------------------*||--------------------|
--3--------5--------|--7---------------------------*||--3--------5--------|
--1--------3--------|--5--5-5-5--5-5-5--5-5-5--5-5--||--1--------3--------|
--------------------|-------------------------------||--------------------|


                                              Chorus                           
  W                   H        Q    Q         E      S S E  S S E  S S E  S S  
-------------------|---------------------||-----------------------------------|
-------------------|---------------------||-----------------------------------|
-------------------|---------------------||*----------------------------------|
--2----------------|--2--------3----5----||*--7-------------------------------|
--0----------------|--0--------1----3----||---5------5-5-5--5-5-5--5-5-5--5-5-|
-------------------|---------------------||-----------------------------------|


  W                   W                   H        Q    Q     3x
-------------------|-------------------|----------------------||
-------------------|-------------------|----------------------||
-------------------|-------------------|---------------------*||
--5----------------|--3----------------|--2--------3----5----*||
--3----------------|--1----------------|--0--------1----3-----||
-------------------|-------------------|----------------------||


  E  S S E  S S E  S S E  S S    W                   W                 
------------------------------|-------------------|-------------------|
------------------------------|-------------------|-------------------|
------------------------------|-------------------|-------------------|
--7---------------------------|--5----------------|--3----------------|
--5--5-5-5--5-5-5--5-5-5--5-5-|--3----------------|--1----------------|
------------------------------|-------------------|-------------------|


                                               Riff A                   
  W                   H.           S  S S S    Q      E  S S Q    Q     
-------------------|------------------------|--------------------------|
-------------------|---------------6p-5-----|--------------5-6----8----|
-------------------|--------------------7-5-|--7------L--7-------------|
--2----------------|--L---------------------|--------------------------|
--0----------------|--L---------------------|--------------------------|
-------------------|------------------------|--------------------------|


  S  S E  H        S  S S S    Q    E  S S Q    Q     
----------------------------|------------------------|
--6p-5-------------6p-5-----|------------5-6----8----|
-------7--L-------------7-5-|--7----L--7-------------|
----------------------------|------------------------|
----------------------------|------------------------|
----------------------------|------------------------|


  Q    E  S  S Q    S  S S S    Q    E  S S Q    Q       S  S E  H.            
--5----L---------------------|------------------------|-----------------------|
----------8p-6-5----6p-5-----|------------5-6----8----|--6p-5-----------------|
-------------------------7-5-|--7----L--7-------------|-------7--L------------|
-----------------------------|------------------------|-----------------------|
-----------------------------|------------------------|-----------------------|
-----------------------------|------------------------|-----------------------|


  Q    E  E  E.  E.  E     H        S  S S S S  S S S    Q    E  S S Q    Q     
------------------------|-----------------------------|------------------------|
-------------5---6---8--|--5--------8p-6-5---6p-5-----|------------5-6----8----|
--5----L--7-------------|------------------7------7-5-|--7----L--7-------------|
------------------------|-----------------------------|------------------------|
------------------------|-----------------------------|------------------------|
------------------------|-----------------------------|------------------------|


  S  S E  H        S  S S S    Q    E  S S Q    Q     
----------------------------|------------------------|
--6p-5-------------6p-5-----|------------5-6----8----|
-------7--L-------------7-5-|--7----L--7-------------|
----------------------------|------------------------|
----------------------------|------------------------|
----------------------------|------------------------|


  Q    E  S  S Q    S  S S S    Q    E  S S Q    Q       S  S E  H.            
--5----L---------------------|------------------------|-----------------------|
----------8p-6-5----6p-5-----|------------5-6----8----|--6p-5-----------------|
-------------------------7-5-|--7----L--7-------------|-------7--L------------|
-----------------------------|------------------------|-----------------------|
-----------------------------|------------------------|-----------------------|
-----------------------------|------------------------|-----------------------|


  Q    E  E  E.  E.  E     H        S  S S S S  S S S  
------------------------|-----------------------------|
-------------5---6---8--|--5--------8p-6-5---6p-5-----|
--5----L--7-------------|------------------7------7-5-|
------------------------|-----------------------------|
------------------------|-----------------------------|
------------------------|-----------------------------|


  Riff B                                                       
  E      S S E  S S E  S S E  S S    E  S S E  S S E  E  Q     
----------------------------------|---------------------------|
----------------------------------|---------------------------|
----------------------------------|---------------------------|
-------------7-------------7------|---------7---------5--L----|
--5------5-5-5--5-5-5--5-5-5--5-5-|--5--5-5-5--5-5-5--3--L----|
----------------------------------|---------------------------|


  E  S S E  S S E  S S E  S S    H.           Q     
------------------------------|--------------------|
------------------------------|--------------------|
------------------------------|--------------------|
---------7-------------7------|--3------------5----|
--5--5-5-5--5-5-5--5-5-5--5-5-|--1------------3----|
------------------------------|--------------------|


  E  S S E  S S E  S S E  S S    E  S S E  S S E  E  Q     
------------------------------|---------------------------|
------------------------------|---------------------------|
------------------------------|---------------------------|
---------7-------------7------|---------7---------5--L----|
--5--5-5-5--5-5-5--5-5-5--5-5-|--5--5-5-5--5-5-5--3--L----|
------------------------------|---------------------------|


    Solo                                                 
    W                      Q     E  S  S S S S  S Q      
----------------------|---------------------------------|
----------------------|---------------------------------|
--1g3~----------------|--3g5~----L-------5---5h-7-7b----|
----------------------|-------------7h-8---8------------|
----------------------|---------------------------------|
----------------------|---------------------------------|


  Q    S  S E   H           Q    E  S   S  S   S  S  S  E   S   S  
-------------------------|----------------------------------------|
-------------------------|----------------------------------------|
--L----7p-5-7~--L--------|--L----L--9h-10-12p-10-12-12b-L--12p-10-|
-------------------------|----------------------------------------|
-------------------------|----------------------------------------|
-------------------------|----------------------------------------|


   W                     E.   E.   E   S   S   S  E   S   S  S  
---------------------|-----------------------------------------|
---------------------|------------10--13p-10h-13-10--13p-10-10-|
---------------------|-----------------------------------------|
--12~----------------|--12S---x--------------------------------|
---------------------|-----------------------------------------|
---------------------|-----------------------------------------|


                     |---3---|      |---3---|   |---3---|                     
   Q.       Q.       E   E   E      E   E   E   E   E   E   E   E   E   S  S  
--------------------------------|--------------------------------------------|
--13b------13b------13--10------|--10----------------------10--11b--L--10----|
----------------------------12--|------12--10------10--12-----------------12-|
--------------------------------|--------------12----------------------------|
--------------------------------|--------------------------------------------|
--------------------------------|--------------------------------------------|


                             |---3---|   |---3---|   |---3---|   |---3---|   
   H.             E   E      E   E   E   E   E   E   E   E   E   E   E   E   
-------------------------|--12--12--12--13--12--13--15--13--15--17--15--17--|
--10~------------10S--x--|--------------------------------------------------|
-------------------------|--------------------------------------------------|
-------------------------|--------------------------------------------------|
-------------------------|--------------------------------------------------|
-------------------------|--------------------------------------------------|


   Q.       Q.       S  S   S   S     S   S  E   Q.      Q     E   
--20b------20b-------L-20p-18p-17-|--15p-13-------------12----13--|
----------------------------------|---------15~--L----------------|
----------------------------------|-------------------------------|
----------------------------------|-------------------------------|
----------------------------------|-------------------------------|
----------------------------------|-------------------------------|


   |---3---|   |---3---|                 
   E   E   E   E   E   E   E   Q.        
--15--13--12------12--13--15--15br------|
--------------15------------------------|
----------------------------------------|
----------------------------------------|
----------------------------------------|
----------------------------------------|


   |----3---|   |----3---|               
   E    E   E   E   E    E   H           
--17p--15--13------13h--15--13br--------|
---------------15-----------------------|
----------------------------------------|
----------------------------------------|
----------------------------------------|
----------------------------------------|


   |---3---|                               
   E   E   E   E     E    Q     S  S  E    
------------------------------------------|
------------------------------------------|
--10p--9--10--12--<>10br--L----10p-9-10b--|
------------------------------------------|
------------------------------------------|
------------------------------------------|


        NH        NH                                                       
                                                               |---3---|   
  E     E   E     E   S  S   S  S  E   E        H.             E   E   E   
-----<>15------<>15-------------------------|-----------------------------|
---------------------13---------------------|-----------------------------|
--L--------12-----------14p-12----12--12br--|---------------------10--12--|
-------------------------------15-----------|--12~------------12----------|
--------------------------------------------|-----------------------------|
--------------------------------------------|-----------------------------|


   |----3---|                                                       |---3---|   
   E    E   E   S  S  S   S   S   S  S  S  Q         H.             E   E   E   
-------------------------------------------------|-----------------------------|
--10h--13--10-----10-----------------------------|-----------------------------|
---------------12----12p-10h-12p-10----10-12b----|--12~------------------------|
------------------------------------12-----------|-----------------10------10--|
-------------------------------------------------|---------------------12------|
-------------------------------------------------|-----------------------------|


   Q     E   S   S  H          
------------------------------|
------------------------------|
------------------------------|
--12b----L--12p-10-12~--------|
------------------------------|
------------------------------|


   |----3----|   |---3---|   |---3---|   |----3---|   
   E    E    E   E   E   E   E   E   E   E    E   E   
----------------------------10------10--12p--10------|
--11p--10h--11--13--11--13------13---------------13--|
-----------------------------------------------------|
-----------------------------------------------------|
-----------------------------------------------------|
-----------------------------------------------------|


   |----3---|   |----3----|   |---3---|   |----3----|   
   E    E   E   E    E    E   E   E   E   E    E    E   
-----------10--12p--10h--12--13--12--13--15p--13h--15--|
--11h--13----------------------------------------------|
-------------------------------------------------------|
-------------------------------------------------------|
-------------------------------------------------------|
-------------------------------------------------------|


   Q.       Q.      Q        Q.       Q.      Q     
--15b------15b------L----|--18b------18b------L----|
-------------------------|-------------------------|
-------------------------|-------------------------|
-------------------------|-------------------------|
-------------------------|-------------------------|
-------------------------|-------------------------|


    Chorus                                                                 
    E    S S E  S S E  S S E  S S    W                   W                 
--(20)b--L-L-L--L-L-L--L-L-L--L-L-|--L----------------|-------------------|
----------------------------------|-------------------|-------------------|
----------------------------------|-------------------|-------------------|
----7-----------------------------|--5----------------|--3----------------|
----5----5-5-5--5-5-5--5-5-5--5-5-|--3----------------|--1----------------|
----------------------------------|-------------------|-------------------|


  H        Q    Q         E  S S E  S S E  S S E  S S    W                 
---------------------||-------------------------------|-------------------|
---------------------||-------------------------------|-------------------|
---------------------||*------------------------------|-------------------|
--2--------3----5----||*--7---------------------------|--5----------------|
--0--------1----3----||---5--5-5-5--5-5-5--5-5-5--5-5-|--3----------------|
---------------------||-------------------------------|-------------------|


  W                   H        Q    Q         E  S S E  S S E  S S E  S S  
-------------------|----------------------||------------------------------|
-------------------|----------------------||------------------------------|
-------------------|---------------------*||------------------------------|
--3----------------|--2--------3----5----*||--7---------------------------|
--1----------------|--0--------1----3-----||--5--5-5-5--5-5-5--5-5-5--5-5-|
-------------------|----------------------||------------------------------|


  W                   W                   W                   W                 
-------------------|-------------------|-------------------|-------------------|
-------------------|-------------------|-------------------|-------------------|
-------------------|-------------------|-------------------|-------------------|
--5----------------|--3----------------|--2----------------|--L----------------|
--3----------------|--1----------------|--0----------------|--L----------------|
-------------------|-------------------|-------------------|-------------------|


  Interlude                                                               
  Q.        H        E     E  E  E  E  E  E  E  E     Q.     H        E   
------------------------|--------------------------|---------------------|
------------------------|-----------5--6--5--------|---------------------|
--7---------7--------L--|--L--5--7-----------7--5--|--7------7--------L--|
------------------------|--------------------------|---------------------|
------------------------|--------------------------|---------------------|
------------------------|--------------------------|---------------------|


  E  E  E  E  E  E  E  E     Q    E  S  S H           E  E  E  E  E  E  E  E   
--------------------------|------------------------|--------------------------|
-----------5--6--5--------|--8----L--6p-5-6--------|--L--------5--6--5--------|
--L--5--7-----------7--5--|------------------------|-----5--7-----------7--5--|
--------------------------|------------------------|--------------------------|
--------------------------|------------------------|--------------------------|
--------------------------|------------------------|--------------------------|


  Q.     H         E     H        E      E  Q        Q.      H        E   
----------------------|--------------------------|--10------10--------L--|
----------------------|--------------12g13--L----|-----------------------|
--7------7~--------L--|--L--------L--------------|-----------------------|
----------------------|--------------------------|-----------------------|
----------------------|--------------------------|-----------------------|
----------------------|--------------------------|-----------------------|


  E   E   E   E   E   E   E   E      Q.      H        E   
--L------10--12--13--12--10------|--10------10--------L--|
-----13----------------------13--|-----------------------|
---------------------------------|-----------------------|
---------------------------------|-----------------------|
---------------------------------|-----------------------|
---------------------------------|-----------------------|


  E   E   E   E   E   E   E   E      Q     E   S   S  H         
--L------10--12--13--12--10------|--15~----L--13p-12-13--------|
-----13----------------------13--|-----------------------------|
---------------------------------|-----------------------------|
---------------------------------|-----------------------------|
---------------------------------|-----------------------------|
---------------------------------|-----------------------------|


  E   E   E   E   E   E   E   E      Q.      H         E   
--L------10--12--13--12--10------|--10------10~--------L--|
-----13----------------------13--|------------------------|
---------------------------------|------------------------|
---------------------------------|------------------------|
---------------------------------|------------------------|
---------------------------------|------------------------|


  H          H                H         E   E.   E.      H        E   E.   E.   
--L--------(10)~--------|----------------------------|-------------------------|
------------------------|--9g11~--------L--13---11---|--10--------L------------|
------------------------|----------------------------|---------------12---10---|
------------------------|----------------------------|-------------------------|
------------------------|----------------------------|-------------------------|
------------------------|----------------------------|-------------------------|


   S   S  S  S  H.               W                  
-----------------------------|---------------------|
-----------------------------|---------------------|
--12p-10----10-12------------|--12~----------------|
---------12------------------|---------------------|
-----------------------------|---------------------|
-----------------------------|---------------------|


                |-----3-----|                                                  
     H          Q     Q     Q        H.            Q        W                  
---------------------------------|----------------------|---------------------|
--9g11~--------11----10----11----|--13------------11----|--10~----------------|
---------------------------------|----------------------|---------------------|
---------------------------------|----------------------|---------------------|
---------------------------------|----------------------|---------------------|
---------------------------------|----------------------|---------------------|


                            Chorus                                             
      W                     E    S S E  S S E  S S E  S S    W                 
--10g12----------------|--(10)~--L-L-L--L-L-L--L-L-L--L-L-|--L----------------|
-----------------------|----------------------------------|-------------------|
-----------------------|----------------------------------|-------------------|
-----------------------|----7-----------------------------|--5----------------|
-----------------------|----5----5-5-5--5-5-5--5-5-5--5-5-|--3----------------|
-----------------------|----------------------------------|-------------------|


  W                   H        Q    Q         E  S S E  S S E  S S E  S S  
-------------------|---------------------||-------------------------------|
-------------------|---------------------||-------------------------------|
-------------------|---------------------||*------------------------------|
--3----------------|--2--------3----5----||*--7---------------------------|
--1----------------|--0--------1----3----||---5--5-5-5--5-5-5--5-5-5--5-5-|
-------------------|---------------------||-------------------------------|


  W                   W                   H        Q    Q       
-------------------|-------------------|----------------------||
-------------------|-------------------|----------------------||
-------------------|-------------------|---------------------*||
--5----------------|--3----------------|--2--------3----5----*||
--3----------------|--1----------------|--0--------1----3-----||
-------------------|-------------------|----------------------||


  E  S S E  S S E  S S E  S S    W                   W                 
------------------------------|-------------------|-------------------|
------------------------------|-------------------|-------------------|
------------------------------|-------------------|-------------------|
--7---------------------------|--5----------------|--3----------------|
--5--5-5-5--5-5-5--5-5-5--5-5-|--3----------------|--1----------------|
------------------------------|-------------------|-------------------|


                                               Outro                   
  W                   H.           S  S S S    Q     E  S S Q    Q     
-------------------|------------------------|-------------------------|
-------------------|---------------6p-5-----|-------------5-6----8----|
-------------------|--------------------7-5-|--7-----L--7-------------|
--2----------------|--L---------------------|-------------------------|
--0----------------|--L---------------------|-------------------------|
-------------------|------------------------|-------------------------|


  S  S E  H        S  S S S    Q    E  S S Q    Q     
----------------------------|------------------------|
--6p-5-------------6p-5-----|------------5-6----8----|
-------7--L-------------7-5-|--7----L--7-------------|
----------------------------|------------------------|
----------------------------|------------------------|
----------------------------|------------------------|


  Q    E  S  S Q    S  S S S    Q    E  S S Q    Q       S  S E  H.            
--5----L---------------------|------------------------|-----------------------|
----------8p-6-5----6p-5-----|------------5-6----8----|--6p-5-----------------|
-------------------------7-5-|--7----L--7-------------|-------7--L------------|
-----------------------------|------------------------|-----------------------|
-----------------------------|------------------------|-----------------------|
-----------------------------|------------------------|-----------------------|


  Q    E  E  E.  E.  E     H        S  S S S S  S S S    Q    E  S S Q    Q     
------------------------|-----------------------------|------------------------|
-------------5---6---8--|--5--------8p-6-5---6p-5-----|------------5-6----8----|
--5----L--7-------------|------------------7------7-5-|--7----L--7-------------|
------------------------|-----------------------------|------------------------|
------------------------|-----------------------------|------------------------|
------------------------|-----------------------------|------------------------|


  S  S E  H        S  S S S    Q    E  S S Q    Q     
----------------------------|------------------------|
--6p-5-------------6p-5-----|------------5-6----8----|
-------7--L-------------7-5-|--7----L--7-------------|
----------------------------|------------------------|
----------------------------|------------------------|
----------------------------|------------------------|


  Q    E  S  S Q    S  S S S    Q    E  S S Q    Q       S  S E  H.            
--5----L---------------------|------------------------|-----------------------|
----------8p-6-5----6p-5-----|------------5-6----8----|--6p-5-----------------|
-------------------------7-5-|--7----L--7-------------|-------7--L------------|
-----------------------------|------------------------|-----------------------|
-----------------------------|------------------------|-----------------------|
-----------------------------|------------------------|-----------------------|


  tempo decreasing...                                                       
  Q                   E  E  E.  E.  E     H        E  E  E  E  E  E  E  E   
---------------------------------------|-----------------------------------|
----------------------------5---6---8--|--5--------8--6--5-----6--5--------|
--5-------------------L--7-------------|--------------------7--------7--5--|
---------------------------------------|-----------------------------------|
---------------------------------------|-----------------------------------|
---------------------------------------|-----------------------------------|


  Q    H.              W                  
--------------------|-------------------||
--------------------|-------------------||
--L-----------------|-------------------||
-------7------------|--L----------------||
-------5------------|--L----------------||
--------------------|-------------------||




Duration Legend
---------------
W - whole
H - half
Q - quarter
E - 8th
S - 16th
T - 32nd
X - 64th
. - note dotted
|-n-|  - n-tuplets


Tablature Legend
----------------
L - tied note
x - dead note
g - grace note
(n) - ghost note
> - accentuded note
NH - natural harmonic
AH - artificial harmonic
TH - tapped harmonic
SH - semi harmonic
PH - pitch harmonic
h - hammer on
p - pull off
b - bend
br - bendRelease
pb - preBend
pbr - preBendRelease
brb - bendReleaseBend
\n/ - tremolo bar dip
\n - tremolo bar dive
-/n - tremolo bar Release up
/n\ - tremolo bar inverted dip
/n - tremolo bar return
-\n - tremolo bar Release down
S - shift slide
s - legato slide
/ -  slide into from below or out of upwards
\ -  slide into from above or out of downwards
~ - vibrato
W - wide vibrato
tr - trill
TP - tremolo picking
T - tapping
S - slap
P - pop
< - fade in
^ - brush up
v - brush down
Добавлено: 18.09.2013
Другие материалы по этой песне:

Страница создана 16.03.2012
http://primanota.ru/tierra-santa/la-caja-de-pandora-chords.htm
Привет, Гость.
Предлагаем пройти революционный курс по гитаре.
Подарок от PrimaNota.Ru, забирай!