PrimaNota.ru - самый крупный в мире бесплатный архив песенных текстов, аккордов, табулатур и нот


Tierra Santa - El Laberinto Del Minotauro - текст песни, таба, видео

Регистрация Запомнить меня
Войти через:  Facebook Google Twitter Vk Yandex Mail.ru

Tierra Santa - El Laberinto Del Minotauro - текст песни, таба, видео

Печатать
Просмотров: 124
Уроки эстрадного вокала в Санкт-Петербурге
                          El Laberinto Del Minotauro                            


                                                                    Tierra Santa
Guitar 1



          Intro (t = 124)                                                  
     S    E               E  E  E  E  E  E  E     E  E  E  E  E  E  E  E   
E||----|---------------------------------------|--------------------------|
B||----|---------------------------------------|--------------------------|
G||----|--9---------------------7--------------|--9--------7-----5-----4--|
D||----|--9---------------------7--------------|--9--------7-----5-----5--|
A||----|--0---------------0--0--0--0--0--0--0--|--0--0--0--0--0--0--0--0--|
E||----|---------------------------------------|--------------------------|


  Q    E  E  H           H        Q    Q       E  E  E  E  E  E  E  E   
----------------------|---------------------|--------------------------|
----------------------|---------------------|--------------------------|
--4----2--2--L--------|--L--------5----7----|--9--------7--------------|
--4----2--2--L--------|--L--------5----7----|--9--------7--------------|
--0----0--0--L--------|--L--------0----0----|--0--0--0--0--0--0--0--0--|
----------------------|---------------------|--------------------------|


  E  E  E  E  E  E  E  E     W                 
--------------------------|-------------------|
--------------------------|-------------------|
--9--------7-----5-----7--|--7----------------|
--9--------7-----5-----7--|--7----------------|
--0--0--0--0--0--0--0--0--|--5----------------|
--------------------------|-------------------|


   |--3--|   |---3--|   |--3--|   |---3--|                                   
   E  E  E   E   E  E   E  E  E   E  E   E      Q      E    E   Q    E   E   
---------------------------7--8------7--10--|--10b----10b--10~--L----8--10--|
--------------------8--10--------10---------|-------------------------------|
----------------10--------------------------|-------------------------------|
--10--7--9--10------------------------------|-------------------------------|
--------------------------------------------|-------------------------------|
--------------------------------------------|-------------------------------|


   Q      S  S  E  E  E  E  E      Q      S  S  E   H         
--10b----10p-8-10--L--8--L--7--|-----------------------------|
-------------------------------|--10b----10p-8-10~--L--------|
-------------------------------|-----------------------------|
-------------------------------|-----------------------------|
-------------------------------|-----------------------------|
-------------------------------|-----------------------------|


  E  E  E  E   E  E  E   E      Q      E    E   Q    E   E   
------------------7--8--10--|--10b----10b--10~--L----8--10--|
--L--8-----8--10------------|-------------------------------|
--------9-------------------|-------------------------------|
----------------------------|-------------------------------|
----------------------------|-------------------------------|
----------------------------|-------------------------------|


   Q      S  S  E  E  E  E     E      W                    H.           E   E   
--10b----10p-8-10--L--8--L--8g10--|--10~----------------|--L------------8--10--|
----------------------------------|---------------------|----------------------|
----------------------------------|---------------------|----------------------|
----------------------------------|---------------------|----------------------|
----------------------------------|---------------------|----------------------|
----------------------------------|---------------------|----------------------|


   Q      E    E   Q    E   E      Q      S  S  E  E  E  E  E   
--10b----10b--10~--L----8--10--|--10b----10p-8-10--L--8--L--7--|
-------------------------------|-------------------------------|
-------------------------------|-------------------------------|
-------------------------------|-------------------------------|
-------------------------------|-------------------------------|
-------------------------------|-------------------------------|


   Q      S  S  E   H           E  E  E  E   E  E  E   E   
-----------------------------|------------------7--8--10--|
--10b----10p-8-10~--L--------|--L--8-----8--10------------|
-----------------------------|--------9-------------------|
-----------------------------|----------------------------|
-----------------------------|----------------------------|
-----------------------------|----------------------------|


   Q      E    E   Q    E   E      Q      S  S  E  E  E  E     E   
--10b----10b--10~--L----8--10--|--10b----10p-8-10--L--8--L--8g10--|
-------------------------------|----------------------------------|
-------------------------------|----------------------------------|
-------------------------------|----------------------------------|
-------------------------------|----------------------------------|
-------------------------------|----------------------------------|


   W                        H         H            E    E   H.            
--10~----------------|--10g12--------15--------|--15b--15b--L------------|
---------------------|-------------------------|-------------------------|
---------------------|-------------------------|-------------------------|
---------------------|-------------------------|-------------------------|
---------------------|-------------------------|-------------------------|
---------------------|-------------------------|-------------------------|


   H           Q        Q     
--15pb--------15pbr----13----|
-----------------------------|
-----------------------------|
-----------------------------|
-----------------------------|
-----------------------------|


   |---3---|   |---3---|   |---3---|   |---3---|             
   S   S   S   S   S   S   S   S   S   S   S   S  H          
--12h-13p-12h-13p-12h-13p-12h-13p-12h-13p-12h-13-12~--------|
------------------------------------------------------------|
------------------------------------------------------------|
------------------------------------------------------------|
------------------------------------------------------------|
------------------------------------------------------------|


                                  Verse Riff 1                          
                    |--3--|                                             
  E  E  E  E  E  E  S  S  S E     W                   W                 
--L----------------------------|-------------------|-------------------|
-------------------------------|-------------------|-------------------|
-------------------------------|--2----------------|--L----------------|
-------------------------------|--2----------------|--L----------------|
--------2--3--5--3--2h-3p-2----|--0----------------|--L----------------|
-----5----------------------5--|-------------------|-------------------|


   W                    W                   W                 
---------------------|-------------------|-------------------|
---------------------|-------------------|-------------------|
--(2)----------------|--L----------------|-------------------|
--(2)----------------|--L----------------|--5----------------|
--(0)----------------|--L----------------|--5----------------|
---------------------|-------------------|--3----------------|


                                                            |--3--|     
  W                   W                   E  E  E  E  E  E  S  S  S E   
-------------------|-------------------|-------------------------------|
-------------------|-------------------|-------------------------------|
-------------------|--2----------------|--L----------------------------|
--L----------------|--2----------------|--L----------------------------|
--L----------------|--0----------------|--L-----2--3--5--3--2h-3p-2----|
--L----------------|-------------------|-----5----------------------5--|


  Verse Riff 2                                                  
  E            E  E  E  E  E  E  E     E  E  E  E  E  E  E  E   
------------------------------------|--------------------------|
------------------------------------|--------------------------|
------------------------------------|--------------------------|
--2------------------2--------2-----|--2--------2--------2-----|
--0------------0--0--0--0--0--0--0--|--0--0--0--0--0--0--0--0--|
------------------------------------|--------------------------|


  E  E  E  E  E  E  E  E     E  E  E  E  E  E  E  E   
--------------------------|--------------------------|
--------------------------|--------------------------|
--------------------------|--------------------------|
--2--------2--------2-----|--2--------2--------2-----|
--0--0--0--0--0--0--0--0--|--0--0--0--0--0--0--0--0--|
--------------------------|--------------------------|


  E  E  E  E  E  E  E  E     E  E  E  E  E  E  E  E   
--------------------------|--------------------------|
--------------------------|--------------------------|
--------------------------|--------------------------|
--------------------------|--------------------------|
--5--------5--------5-----|--5--------5--------5-----|
--3--3--3--3--3--3--3--3--|--3--3--3--3--3--3--3--3--|


                                                             Bridge            
                                               |--3--|                         
  E  E  E  E  E  E  E  E     E  E  E  E  E  E  S  S  S E     W                 
--------------------------|-------------------------------|-------------------|
--------------------------|-------------------------------|-------------------|
--------------------------|--------4--5--7--5--4h-5p-4----|--5----------------|
--2--------2--------2-----|-----7----------------------7--|--3----------------|
--0--0--0--0--0--0--0--0--|--0----------------------------|-------------------|
--------------------------|-------------------------------|-------------------|


                                                                   |--3--|     
  W                   E  E  E  E  E  E  E  E     E  E  E  E  E  E  S  S  S E   
-------------------|--------------------------|-------------------------------|
-------------------|--------------------------|-------------------------------|
--L----------------|--------------------------|--------4--5--7--5--4h-5p-4----|
--L----------------|--2--------2--------2-----|-----7----------------------7--|
-------------------|--0--0--0--0--0--0--0--0--|--0----------------------------|
-------------------|--------------------------|-------------------------------|


  W                   W                   E  E  E  E  E  E  E  E   
-------------------|-------------------|--------------------------|
-------------------|-------------------|--------------------------|
--5----------------|--L----------------|--------------------------|
--3----------------|--L----------------|--9-----------------------|
-------------------|-------------------|--7--7--7--7--7--7--7--7--|
-------------------|-------------------|--------------------------|


                               Chorus                       
  E  E  E  E  E  E  E  E       E      E  E  E  E  E  E  E   
--------------------------||-------------------------------|
--------------------------||-------------------------------|
--------------------------||*------------------------------|
--------------------------||*--2---------2--------2--L-----|
--7--7--7--7--7--7--7--7--||---0---------0--------0--L-----|
--------------------------||----------0-----0--3-----------|


  Q.     Q.     Q       W                   W                   
---------------------|-------------------|--------------------||
---------------------|-------------------|--------------------||
---------------------|-------------------|-------------------*||
--5------------------|-------------------|-------------------*||
--3------5------L----|--3----------------|--5-----------------||
---------3------L----|--1----------------|--3-----------------||


                                                        Verse Riff 1      
  E  E  E  E  E  E  E  E     E  E  E  E  E  E  E  E     W                 
--------------------------|--------------------------|-------------------|
--------------------------|--------------------------|-------------------|
--------------------------|--------------------------|--2----------------|
--------------------------|--------------------------|--2----------------|
--2-----------------------|--------------------------|--0----------------|
--0--0--0--0--0--0--0--0--|--0--0--0--0--0--0--0--0--|-------------------|


  W                    W                    W                 
-------------------|---------------------|-------------------|
-------------------|---------------------|-------------------|
--L----------------|--(2)----------------|--L----------------|
--L----------------|--(2)----------------|--L----------------|
--L----------------|--(0)----------------|--L----------------|
-------------------|---------------------|-------------------|


  W                   W                   W                 
-------------------|-------------------|-------------------|
-------------------|-------------------|-------------------|
-------------------|-------------------|--2----------------|
--5----------------|--L----------------|--2----------------|
--5----------------|--L----------------|--0----------------|
--3----------------|--L----------------|-------------------|


                                  Verse Riff 2                       
                    |--3--|                                          
  E  E  E  E  E  E  S  S  S E     E            E  E  E  E  E  E  E   
-------------------------------|------------------------------------|
-------------------------------|------------------------------------|
--L----------------------------|------------------------------------|
--L----------------------------|--2------------------2--------2-----|
--L-----2--3--5--3--2h-3p-2----|--0------------0--0--0--0--0--0--0--|
-----5----------------------5--|------------------------------------|


  E  E  E  E  E  E  E  E     E  E  E  E  E  E  E  E   
--------------------------|--------------------------|
--------------------------|--------------------------|
--------------------------|--------------------------|
--2--------2--------2-----|--2--------2--------2-----|
--0--0--0--0--0--0--0--0--|--0--0--0--0--0--0--0--0--|
--------------------------|--------------------------|


  E  E  E  E  E  E  E  E     E  E  E  E  E  E  E  E   
--------------------------|--------------------------|
--------------------------|--------------------------|
--------------------------|--------------------------|
--2--------2--------2-----|--------------------------|
--0--0--0--0--0--0--0--0--|--5--------5--------5-----|
--------------------------|--3--3--3--3--3--3--3--3--|


  E  E  E  E  E  E  E  E     E  E  E  E  E  E  E  E   
--------------------------|--------------------------|
--------------------------|--------------------------|
--------------------------|--------------------------|
--------------------------|--2--------2--------2-----|
--5--------5--------5-----|--0--0--0--0--0--0--0--0--|
--3--3--3--3--3--3--3--3--|--------------------------|


                                  Bridge                                
                    |--3--|                                             
  E  E  E  E  E  E  S  S  S E     W                   W                 
-------------------------------|-------------------|-------------------|
-------------------------------|-------------------|-------------------|
--------4--5--7--5--4h-5p-4----|--5----------------|--L----------------|
-----7----------------------7--|--3----------------|--L----------------|
--0----------------------------|-------------------|-------------------|
-------------------------------|-------------------|-------------------|


                                               |--3--|                         
  E  E  E  E  E  E  E  E     E  E  E  E  E  E  S  S  S E     W                 
--------------------------|-------------------------------|-------------------|
--------------------------|-------------------------------|-------------------|
--------------------------|--------4--5--7--5--4h-5p-4----|--5----------------|
--2--------2--------2-----|-----7----------------------7--|--3----------------|
--0--0--0--0--0--0--0--0--|--0----------------------------|-------------------|
--------------------------|-------------------------------|-------------------|


  W                   E  E  E  E  E  E  E  E     E  E  E  E  E  E  E  E   
-------------------|--------------------------|--------------------------|
-------------------|--------------------------|--------------------------|
--L----------------|--------------------------|--------------------------|
--L----------------|--9-----------------------|--------------------------|
-------------------|--7--7--7--7--7--7--7--7--|--7--7--7--7--7--7--7--7--|
-------------------|--------------------------|--------------------------|


    Chorus                                                                 
    E      E  E  E  E  E  E  E     Q.     Q.     Q       W                 
|-------------------------------|---------------------|-------------------|
|-------------------------------|---------------------|-------------------|
|*------------------------------|---------------------|-------------------|
|*--2---------2--------2--L-----|--5------------------|-------------------|
|---0---------0--------0--L-----|--3------5------L----|--3----------------|
|----------0-----0--3-----------|---------3------L----|--1----------------|


  W                     E  E  E  E  E  E  E  E     E  E  E  E  E  E  E  E   
--------------------||--------------------------|--------------------------|
--------------------||--------------------------|--------------------------|
-------------------*||--------------------------|--------------------------|
-------------------*||--------------------------|--------------------------|
--5-----------------||--2-----------------------|--------------------------|
--3-----------------||--0--0--0--0--0--0--0--0--|--0--0--0--0--0--0--0--0--|


  Break                                                       
  W                   W                    W                  
-------------------|-------------------|---------------------|
-------------------|-------------------|---------------------|
--2----------------|--L----------------|--(2)----------------|
--2----------------|--L----------------|--(2)----------------|
--0----------------|--L----------------|--(0)----------------|
-------------------|-------------------|---------------------|


  H        E.  E.  E     W                   W                 
----------------------|-------------------|-------------------|
----------------------|-------------------|-------------------|
--L-------------------|-------------------|-------------------|
--L--------5---2------|--3----------------|--L----------------|
--L--------3---0---2--|--3----------------|--L----------------|
-------------------0--|--1----------------|--L----------------|


  E  E  E  E  E  E  E  E     E  E  E  E  E  E  E  E   
--------------------------|--------------------------|
--------------------------|--------------------------|
--------------------------|--------------------------|
--------------------------|--------------------------|
--2-----------------------|--------------------------|
--0--0--0--0--0--0--0--0--|--0--0--0--0--0--0--0--0--|


   Solo                                                                       
   H          Q    E   S  S    H         E  E   E  E      W                   
--10pb--------L----L--------|-------------------------|----------------------|
---8pb--------L----L--10p-8-|----------------------8--|--10br----------------|
----------------------------|--9~--------L--9---L-----|----------------------|
----------------------------|-------------------------|----------------------|
----------------------------|-------------------------|----------------------|
----------------------------|-------------------------|----------------------|


   H          E.   E.   E      H          H          
---------------------------|------------------------|
--10~--------10---12---13--|--15b--------15~--------|
---------------------------|------------------------|
---------------------------|------------------------|
---------------------------|------------------------|
---------------------------|------------------------|


  Q     S   S  S   S  S   S  E    Q      
---------------------12h-13-15b--15b----|
--L-----------12h-13--------------------|
-------12h-14---------------------------|
----------------------------------------|
----------------------------------------|
----------------------------------------|


                                 |---3---|                  
   E      S  S  S   S   S  S  S  S   S   S  S  S  S  S   S  
--15pbr--15-13-12h-13p-12----12----------------------------|
--------------------------15----15p-13p-12-13-12----12h-13-|
-------------------------------------------------14--------|
-----------------------------------------------------------|
-----------------------------------------------------------|
-----------------------------------------------------------|


       |---3---|                                                            
   S   S   S   S  S  S   S  S  S  Q      Q           Q.       H         E   
-------------------------------------------------|--15b------15b--------L--|
--12h-13p-12h-13-15-13p-12-------15b----15pb~----|-------------------------|
---------------------------14-12-----------------|-------------------------|
-------------------------------------------------|-------------------------|
-------------------------------------------------|-------------------------|
-------------------------------------------------|-------------------------|


              |---3--|                    
  Q     S  S  S   S  S   S  S  E    Q     
--L----15-----------15h-17-19-20br--L----|
----------18-17h-18----------------------|
-----------------------------------------|
-----------------------------------------|
-----------------------------------------|
-----------------------------------------|


                          |----3---|   |----3---|   
  E   S   S  S  S   S  S  E    E   E   E    E   E   
--L--20p-19-17-15h-17-15---------------------------|
-------------------------18p--17--15--17p--15------|
-----------------------------------------------17--|
---------------------------------------------------|
---------------------------------------------------|
---------------------------------------------------|


                                                      SH                    
   E   E   E   E   E   E    Q        E   S  S  E      E   Q     S  S  E     
--------------15---L--15---15-----|--L-------------------------------------|
------13b--L--13b--L--13b--13b----|--L-----13-15b--<>15~--L----------------|
--14------------------------------|-----14---------------------12-14-14br--|
----------------------------------|----------------------------------------|
----------------------------------|----------------------------------------|
----------------------------------|----------------------------------------|


              SH                    
  E   S  S    Q      E   E    Q     
-----------------------------------|
-----------------------------------|
--L--12-------------12--14br--L----|
--------15-<>14~-------------------|
-----------------------------------|
-----------------------------------|


   |--3--|   |--3--|  |--3--|  |--3--|  |---3--|   |---3--|  |---3--|  |---3--| 
   S S   S   S   S S  S S   S  S  S  S  S  S   S   S  S   S  S   S  S  S  S   S 
--------------------------------------------------------------------------------
--------------------------------------------------------------------------------
-----9h-10h-12p-10-9----9h-12-10p-9----10------------10h-12---------------------
--12-----------------12-------------12----12p-10h-12--------12p-10p-9----10h-12-
----------------------------------------------------------------------12--------
--------------------------------------------------------------------------------


   |--3-|   |--3--|  |---3--|  |---3--|  |---3--|  |---3--|         
   S S  S   S  S  S  S  S   S  S  S   S  S   S  S  S   S  S  Q      
-------------------------------------------------------------------|
--------------10-----------------10h-12------------------10-12~----|
-------11h-12----12-11p-9h-11-12--------12p-11p-9-11h-12-----------|
--12-9-------------------------------------------------------------|
-------------------------------------------------------------------|
-------------------------------------------------------------------|


  Interlude                                                  
  E         E  E  E  E  E  E  E     E  E  E  E  E  E  E  E   
---------------------------------|--------------------------|
--L------------------------------|--------------------------|
---------------------------------|--------------------------|
--4------------------------------|--------------------------|
--2---------2--2--2--2--2--2--2--|--2--2--2--2--2--2--2--2--|
---------------------------------|--------------------------|


  E  E  E  E  E  E  E  E     E  E  E  E  E  E  E  E   
--------------------------|--------------------------|
--------------------------|--------------------------|
--------------------------|--------------------------|
--2-----------------------|--------------------------|
--0--0--0--0--0--0--0--0--|--0--0--0--0--0--0--0--0--|
--------------------------|--------------------------|


  E  E  E  E  E  E  E  E     E  E  E  E  E  E  E  E   
--------------------------|--------------------------|
--------------------------|--------------------------|
--------------------------|--------------------------|
--------------------------|--------------------------|
--5-----------------------|--------------------------|
--3--3--3--3--3--3--3--3--|--3--3--3--3--3--3--3--3--|


  E  E  E  E  E  E  E  E     E  E  E  E  E  E  E  E   
--------------------------|--------------------------|
--------------------------|--------------------------|
--------------------------|--------------------------|
--------------------------|--------------------------|
--4-----------------------|--------------------------|
--2--2--2--2--2--2--2--2--|--2--2--2--2--2--2--2--2--|


  E  E  E  E  E  E  E  E     E  E  E  E  E  E  E  E   
--------------------------|--------------------------|
--------------------------|--------------------------|
--------------------------|--------------------------|
--4-----------------------|--------------------------|
--2--2--2--2--2--2--2--2--|--2--2--2--2--2--2--2--2--|
--------------------------|--------------------------|


  E  E  E  E  E  E  E  E     E  E  E  E  E  E  E  E   
--------------------------|--------------------------|
--------------------------|--------------------------|
--------------------------|--------------------------|
--2-----------------------|--------------------------|
--0--0--0--0--0--0--0--0--|--0--0--0--0--0--0--0--0--|
--------------------------|--------------------------|


  E  E  E  E  E  E  E  E     E  E  E  E  E  E  E  E   
--------------------------|--------------------------|
--------------------------|--------------------------|
--------------------------|--------------------------|
--------------------------|--------------------------|
--5-----------------------|--------------------------|
--3--3--3--3--3--3--3--3--|--3--3--3--3--3--3--3--3--|


  E  E  E  E  E  E  E  E     E  E  E  E  E  E  E  E   
--------------------------|--------------------------|
--------------------------|--------------------------|
--------------------------|--------------------------|
--------------------------|--------------------------|
--4-----------------------|--------------------------|
--2--2--2--2--2--2--2--2--|--2--2--2--2--2--2--2--2--|


    Last Chorus                                                                 
    E           E  E  E  E  E  E  E     Q.     Q.     Q       W                 
|------------------------------------|---------------------|-------------------|
|------------------------------------|---------------------|-------------------|
|*-----------------------------------|---------------------|-------------------|
|*--4--------------4--------4--L-----|--7------------------|-------------------|
|---2--------------2-----0--2--L-----|--5------7------L----|--5----------------|
|---------------2-----2--------------|---------5------L----|--3----------------|


  W                 3x  E  E  E  E  E  E  E  E     Q.     Q.     Q     
--------------------||--------------------------|---------------------|
--------------------||--------------------------|---------------------|
-------------------*||--------------------------|---------------------|
-------------------*||--4-----4--------4--L-----|--7------------------|
--7-----------------||--2-----2-----0--2--L-----|--5------7------L----|
--5-----------------||-----2-----2--------------|---------5------L----|


  W                   E  E  E  E  E  E  E  E     E  E  E  E  E  E  E  E   
-------------------|--------------------------|--------------------------|
-------------------|--------------------------|--------------------------|
-------------------|--------------------------|--------------------------|
-------------------|--------------------------|--------------------------|
--5----------------|--4-----------------------|--------------------------|
--3----------------|--2--2--2--2--2--2--2--2--|--2--2--2--2--2--2--2--2--|


  Outro                                   tempo decreasing...  
  W                   W                   W                    
-------------------|-------------------|----------------------|
-------------------|-------------------|----------------------|
--4----------------|--L----------------|--L-------------------|
--4----------------|--L----------------|--L-------------------|
--2----------------|--L----------------|--L-------------------|
-------------------|-------------------|----------------------|


  W                   W                   W                  
-------------------|-------------------|-------------------||
-------------------|-------------------|-------------------||
--L----------------|-------------------|-------------------||
--L----------------|-------------------|-------------------||
--L----------------|-------------------|-------------------||
-------------------|-------------------|-------------------||




Duration Legend
---------------
W - whole
H - half
Q - quarter
E - 8th
S - 16th
T - 32nd
X - 64th
. - note dotted
|-n-|  - n-tuplets


Tablature Legend
----------------
L - tied note
x - dead note
g - grace note
(n) - ghost note
> - accentuded note
NH - natural harmonic
AH - artificial harmonic
TH - tapped harmonic
SH - semi harmonic
PH - pitch harmonic
h - hammer on
p - pull off
b - bend
br - bendRelease
pb - preBend
pbr - preBendRelease
brb - bendReleaseBend
\n/ - tremolo bar dip
\n - tremolo bar dive
-/n - tremolo bar Release up
/n\ - tremolo bar inverted dip
/n - tremolo bar return
-\n - tremolo bar Release down
S - shift slide
s - legato slide
/ -  slide into from below or out of upwards
\ -  slide into from above or out of downwards
~ - vibrato
W - wide vibrato
tr - trill
TP - tremolo picking
T - tapping
S - slap
P - pop
< - fade in
^ - brush up
v - brush down
Добавлено: 02.10.2013
Другие материалы по этой песне:

Страница создана 30.04.2012
http://primanota.ru/tierra-santa/el-laberinto-del-minotauro-chords.htm
Привет, Гость.
Предлагаем пройти революционный курс по гитаре.
Подарок от PrimaNota.Ru, забирай!