PrimaNota.ru - самый крупный в мире бесплатный архив песенных текстов, аккордов, табулатур и нот


Tides Of Man - Young And Courageous - таба, видео

Регистрация Запомнить меня
Войти через:  Facebook Google Twitter Vk Yandex Mail.ru

Tides Of Man - Young And Courageous - таба, видео

Печатать
Просмотров: 130
Standard Tuning


Guitar 1
[0:00]-[2:08]
|------------------------------------|
|--------------0~--------------------|
|------0~----0----------------0------|
|----2-----2--------2-4-----2----2~--|
|--2--------------0-------2-----2----|
|------------------------------------|

This is the bells part transcribed to the guitar
[0:33]-[2:08]
|-----------14---------------14--------14-----17-14----14-----15-19-15--|
|--15-17--15----17--15-17--15----17--15----15--------15----17-----------|
|-----------------------------------------------------------------------|
|-----------------------------------------------------------------------|
|-----------------------------------------------------------------------|
|-----------------------------------------------------------------------|
|
|-----------14---------------14---------------14---------------14-------|
|--15-17--15----17--15-17--15----17--15-17--15----17--15-17--15---17----|
|-----------------------------------------------------------------------|
|-----------------------------------------------------------------------|
|-----------------------------------------------------------------------|
|-----------------------------------------------------------------------|


Guitar 2
[1:05]-[2:08]
|------------------------------------------------|
|-----------15p12-------------------17h12--------|
|--16-14h16-------14h16----16-14h16-------14h16--|
|------------------------------------------------|
|------------------------------------------------|
|------------------------------------------------|

Guitar 3
[1:05]-[2:08]
|--------------------------------------|
|--------------------------------------|
|-------7-------------7--9-------------|
|-----------9~-------------9--7~-------|
|--7-10----------7-10-------------5/7--|
|--------------------------------------|
|
|----------------------------------------------------|
|----------------------------------------------------|
|-------7-------------7--9---------------------------|
|-----------9~-------------9--7~----------7--4h5p4b--|
|--7-10----------7-10-------------5/7-10-------------|
|----------------------------------------------------|
|
|x2

Guitar 1
[2:08]-[2:41]
|------------------------------------------|
|--------------------------------------0---|
|--0~---0~------0~---0--0--0---0-----0--0--|
|--2~---2~------2~------2---2--4--0h4------|
|--3~---2~------3~------2------5-----------|
|------------------------------------------|
|
|------------------------------------------|
|--------------------------------------0---|
|----0--0-------0----0--0--0---0-----0--0--|
|---2---2-------2-------2---2--4--0h4------|
|--2----3-------3-------2------5-----------|
|------------------------------------------|

Guitar 1
[2:41]-[3:12]
|-------------0---------------0-----------------|
|-------------0---------------0-------------0---|
|--000000-0~--0---000000-0~---0---0--0----0--0--|
|--222222-2~------222222-2~-------4----0h4------|
|--333333-2~------333333-2~-------5-------------|
|-----------------------------------------------|

Guitar 1
[3:16]-[4:55]
|-------------------------------------------------------------------|
|-------------------------------------------------------------------|
|--0-0-0-0-0-0-0-0-7-7-7-7-7-7-7-7-0-0-0-0-0-0-0-0-0-0-0-0-0-0-0-0--|
|--2-2-2-2-2-2-2-2-5-5-5-5-5-5-5-5-2-2-2-2-2-2-2-2-2-2-2-2-2-2-2-2--|
|--2-2-2-2-2-2-2-2-5-5-5-5-5-5-5-5-3-3-3-3-3-3-3-3-3-3-3-3-3-3-3-3--|
|-------------------------------------------------------------------|

Guitar 2
[3:16]-[5:41]
|------------------------------------|
|--------15------------15-17---------|
|-----------16~--------------16-14~--|
|--14-17---------14-17---------------|
|------------------------------------|
|------------------------------------|
|
|------------------------------------------------------|
|--------15------------15-17---------------------------|
|-----------16~--------------16-14~--12--14--11h12p11--|
|--14-17---------14-17---------------------------------|
|------------------------------------------------------|
|------------------------------------------------------|
|x2
|
|------------------------------------|
|--------15------------15-17---------|
|-----------16~--------------16-14~--|
|--14-17---------14-17---------------|
|------------------------------------|
|------------------------------------|
|
|------------------------------------------------------|
|--------15------------15-17--15-17-17-17-17-17-17-17--|
|-----------16~----------------------------------------|
|--14-17---------14-17---------------------------------|
|------------------------------------------------------|
|------------------------------------------------------|
|x1
|
|------------------------------------|
|--------15------------15-17---------|
|-----------16~--------------16-14~--|
|--14-17---------14-17---------------|
|------------------------------------|
|------------------------------------|
|
|------------------------------------------------------|
|--------15------------15-17---------------------------|
|-----------16~--------------16-14~--12--14--11h12p11-9|
|--14-17---------14-17---------------------------------|
|------------------------------------------------------|
|------------------------------------------------------|
|
|x2

Guitar 3
[3:49]-[4:52]
|-----------------------------------------------------------------------------|
|--121212121212----------12121212-12/15-17-12-121212121212121212121212121212--|
|--121212121212-14/16-14-11111111-------------141414141414141111111111111111--|
|-----------------------------------------------------------------------------|
|-----------------------------------------------------------------------------|
|-----------------------------------------------------------------------------|
|x2
|
|-----------------------------------------------------------------------------|
|--121212121212----------12121212-12/15-15-171717171717171717171717171717-----|
|--121212121212-14/16-14-11111111---------------------------------------------|
|-----------------------------------------------------------------------------|
|-----------------------------------------------------------------------------|
|-----------------------------------------------------------------------------|
|x1
|
|-----------------------------------------------------------------------------|
|--121212121212----------12121212-12/15-17-12-121212121212121212121212121212--|
|--121212121212-14/16-14-11111111-------------141414141414141111111111111111--|
|-----------------------------------------------------------------------------|
|-----------------------------------------------------------------------------|
|-----------------------------------------------------------------------------|
|x1


Добавлено: 10.06.2013
Другие материалы по этой песне:
  • Аккорды и текст

Страница создана 10.06.2013
http://primanota.ru/tides-of-man/young-and-courageous-chords.htm
Привет, Гость.
Предлагаем пройти революционный курс по гитаре.
Подарок от PrimaNota.Ru, забирай!