PrimaNota.ru - самый крупный в мире бесплатный архив песенных текстов, аккордов, табулатур и нот


Tides Of Man - Knowing Youve Already Arrived - бас-таба, видео

Регистрация Запомнить меня
Войти через:  Facebook Google Twitter Vk Yandex Mail.ru

Tides Of Man - Knowing Youve Already Arrived - бас-таба, видео

Печатать
Просмотров: 69
This is all on bass: tuning DADG
Intro:

|-------------------------------------|
|------------------7------------------|
|-----10-\-7-/-8-----8-\--------------|
|8-10--------------------7-h-8-/-10---|

|------------------------------------------------------|
|----------------2-3-2---------------------------------|
|----------3-0---------3-/-5---------------------------|
|0-3-5-0-----------------------------------------------|

|---------------------------------------------|
|--7------------------------------------------|
|----8-\--------------------10-\-7-/-8--------|
|--------7-8-/-10-8-h-10----------------------|

|-------------------------------------------------|
|7------------------------------------------------|
|--8----------------------------------------------|
|----7-h-8-/-10---8-8---8-8---3---3---3-----------|

Verse:
|-------------------------------------------------------|
|------3-\-2---------3-h-5---5-/-7-5-3-5-3--------------|
|3-/-5-------3-/-5-----------------------------5-3------|
|-------------------------------------------------------|

|
|----------------------------------------------|
|----------------------------------------------|
|----------------------------------------------|
|-/-8-8-8-8-8-8-\-3-3-3-3-3-3-/----------------|

|10-9-7-------------------------------------------------------------------------------|
|--------10-8-7-----------------------------3-/-2-------3-h-5---5-/-7-5-3-5-3---------|
|--------------10-8-7----------------3-/-5-------3-/-5---------------------------5-3--|
|---------------------10-8-7----------------------------------------------------------|

|------------------------------------------|
|------------------------------------------|
|------------------------------------------|
|--/-8-8-8-8-8-8-\-3-3-3-3-3-3-/-----------|

|10-9-7-----------------------------------------------7-9-|
|-------10-8-7---------------------------------7-8-10-----|
|--------------10-8-7-------------------7-8-10------------|
|---------------------10-8-7---0-7-8-10-------------------|

Chorus:
|----------------------------------------------|
|7---------------------------------------------|
|--8-\-----------------------10-\-7-/-8--------|
|------7-h-8-/-10-8-h-10-----------------------|


|---------------------------------------------------|
|7-------------------------------2-3-2--------------|
|--8-------------------------3-0-------3-/-5--------|
|----7-h-8-/-10--0-3-5-0----------------------------|

|-----------------------------------------------|
|7----------------------------------------------|
|--8-\------------------------10-\-7-/-8--------|
|------7-h-8-/-10-8-h-10------------------------|


|---------------------------------------------|
|7--------------------------------------------|
|--8------------------------------------------|
|----7-h-8-/-10---8-8---8-8-\-3-3-3-----------|

Pause: Guitar/bass fill into verse

|--10-9-7------------------------|
|---------10-8-7-----------------|
|----------------10-8-7----------|
|-----------------------10-8-7-\-|

Repete Verse:
Repete Chorus into bridge:
Bridge:
|---------------------------------------------------------------|
|---------------------------------------------------------------|
|---------------------------------------------------------------|
|/-12-\-0---0-3-5-0-5-7-8-7-0-8-10-0-10-0-12-\------------------|

|------7-------------------------------------------|
|----7---7-8-7-5-----------------------------------|
|--5-------------7-8-5-----------------------------|
|0----------------------7/-12-p--------------------|

|------------------------------------------------------|
|------------------------------------------------------|
|------------------------------------------------------|
|0-0-0-12-\---0-3-5-0-5-7-8-7-0-8-10-0-----------------|

|-----------------------7-------------------------|
|---------------------7---7-8-5-------------------|
|-------------------5-----------7-8-5-------------|
|0-0---0-0---12-\---------------------7-/---------|

I'd be alive...
|---------------------------------------------|
|---------------------------------------------|
|---------------------------------------------|
|--12-\-0---0-3-5-0-5-7-8-7-0-8-10-0---12-\---|


|--------7--------------------------------|
|------7---7-8-7-5------------------------|
|----5-------------7-8-7-5----------------|
|0-------------------------7-/---12-\---0-|

(Second time through leave off the slide and stop on the 10th)

|-----------------------|
|-----------------------|
|-----------------------|
|0-3-5-0-5-7-8-7-0-8-10-|

(Second time through leave off the slide and stop on the 10th fret)
|-----------------------------|
|-----------------------------|
|-----------------------------|
|7-7-7-7-7-7-7-7-7-7----------|

End of song stop on the --->             Repeate     (E) (The "E" goes into create)
|----------------------------------------------------------------------|
|----------------------------------------------------------------------|
|----------------------------------------------------------------------|
|10-10-10-10-10-10-10-10-10-10---/-12-\-0---X-2---2--------------------|
Добавлено: 15.07.2013
Другие материалы по этой песне:
  • Аккорды и текст

Страница создана 15.07.2013
http://primanota.ru/tides-of-man/knowing-youve-already-arrived-chords.htm
Привет, Гость.
Предлагаем пройти революционный курс по гитаре.
Подарок от PrimaNota.Ru, забирай!