PrimaNota.ru - самый крупный в мире бесплатный архив песенных текстов, аккордов, табулатур и нот


Tiamat - Whatever That Hurts - аккорды и текст, таба, видео

Регистрация Запомнить меня
Войти через:  Facebook Google Twitter Vk Yandex Mail.ru

Tiamat - Whatever That Hurts - аккорды и текст, таба, видео

Печатать
Просмотров: 383
Авторы музыки: Johan Edlund
Авторы текста: Johan Edlund
Whatever That Hurts
Tiamat
Riff A

|-----------------|
|-----------------|
|----2--4--5--4---|
|-2--2--4--5--4---|
|-2--0--2--3--2---|
|-0---------------|


Riff B

|-0----------------------------------|
|-3--1-----0-----1-----0-----0---0---|
|-0----0-----0-----0-----0-----0---0-|
|-2------2-----2-----2-----2---------|
|-2----------------------------------|
|-0----------------------------------|


Riff C

|---------------------------------------|
|---------------------------------------|
|----3------3------3--7------5------3p5-|
|------5------5---------5------5--------|
|--3-----3------3---------3------3------|
|---------------------------------------|


Riff A - 4
Riff B - 16
Riff C - 1
4x(Riff B - 2,Riff C - 1)
Riff C - 1
Riff A - 4
Добавлено: 27.05.2012
Другие материалы по этой песне:

Страница создана 05.04.2012
http://primanota.ru/tiamat/whatever-that-hurts-chords.htm
Привет, Гость.
Предлагаем пройти революционный курс по гитаре.
Подарок от PrimaNota.Ru, забирай!