PrimaNota.ru - самый крупный в мире бесплатный архив песенных текстов, аккордов, табулатур и нот


Tiamat - The Return Of The Son Of Nothing - аккорды и текст, видео

Регистрация Запомнить меня
Войти через:  Facebook Google Twitter Vk Yandex Mail.ru

Tiamat - The Return Of The Son Of Nothing - аккорды и текст, видео

Печатать
Просмотров: 160
Авторы музыки: Johan Edlund
Авторы текста: Johan Edlund
The Return Of The Son Of Nothing
Tiamat
Intro a (four times)
2|-------3----3---|---1----1---1---|
3|---0------0---0-|------0---0---0-|
4|-2---2----------|-2--------------|

Intro b
3|-------5-----2--|
4|-2-----5-----2--|
5|-2-----3-----0--|
6|-0--------------|

Intro a (играется плавно)
The warrior went back to Rome
The nomads settled for solid homes
The crusader returned to heathen
The snake searched for garden of Eden

The manikin went back in her cocoon
And NASA flew back to the moon
The great white returned to the coral reef
As the geisha stepped up on a water lily leaf

Intro b
Everything was like before
And the pharaohs killed the first born son
Good lord Jesus Christ went back to his whore
The whore went back to Babylon

Part 1(two times)
1------------------------------|
2------------------------------|
3|---------4---------4-----------5p4-4-0-4-|
4|-2-2-4h5---2-2-4h5---2-2-4h5-5-----------|
5------------------------------|
6------------------------------|

Далее опять Intro a
The pope went back on the dole
And Santa flew back to the northpole
Judas went back to Nazareth
And the president back in his jet

The raven flew back to Hades
And the shemales went back to the eighties
The dandy went back to Perth
And the dead went straight back to birth

На первом плане играет плавное соло
Но что играет на втором плане не определил,возможно синтезатор или  скрипка
Solo (two times)
1-----------------------|
2|-8-8-8-8-10-8-7-|-7-7-7-7-8-7-5-|-3-1-0---0-----0-1-3-1-0-|
3---------|-------0---0-------------|

Вместе с соло
1|-5--7--3--5--2--3h2h3-------------------|
2-----------|-5---5-5p3p5-5-3-1-3-1--3-0--|
3-----------------------------|

(four times)
2|-------3----3---|---1----1---1---|
3|---0------0---0-|------0---0---0-|
4|-2---2----------|-2--------------|

3-----|-5p4-4-0-4-|
Добавлено: 01.03.2012
Другие материалы по этой песне:

Страница создана 01.03.2012
http://primanota.ru/tiamat/the-return-of-the-son-of-nothing-chords.htm
Привет, Гость.
Предлагаем пройти революционный курс по гитаре.
Подарок от PrimaNota.Ru, забирай!