PrimaNota.ru - самый крупный в мире бесплатный архив песенных текстов, аккордов, табулатур и нот


Thy Primordial - The Heresy Of An Age Of Reason - текст песни, таба, видео

Регистрация Запомнить меня
Войти через:  Facebook Google Twitter Vk Yandex Mail.ru

Thy Primordial - The Heresy Of An Age Of Reason - текст песни, таба, видео

Печатать
Просмотров: 96
-------------------------------------------------------------------------------
 THY PRIMORDIAL-THE HERESY OF AN AGE OF REASON -from same album 2000
-------------------------------------------------------------------------------
Tabbed by:NihilView


Tuning:D standard DGCFAD


 INTRO-MAIN THEME
|---------------------------------------------------------------------------------------------|
|---------------------------------------------------------------------------------------------|
|---------------------------------------------------------------------------------------------|GUIT.1
|---------9----------------------------------------------------------9------------------------|
|-7-7-7------7----7-7-7---10p-7---7-7-7---9p-7---------8-8-----7-7-7------7---7-7-7--9-p7-----|
|-----------------------------------------------8-8-------------------------------------------|


|---------------------------------------------------------------------------------|
|---------------------------------------------------------------------------------|
|---------------------------------------------------------------------------------|
|----------8--------------------------------9--------------------------------9----|
|--6-6-6-------6---6-6-6----9p-6-----7-7-7-------7---7-7-7---10p-7---7-7-7------7-|
|---------------------------------------------------------------------------------|


|--------------------------------------------------------------------------------------|
|--------------------------------------------------------------------------------------|
|--------------------------------------------------------------------------------------|
|-------------------------------------------------------7-7-7---10-p-7---4-4-4--7p-4---|
|--9-9-9---12p-9----10-10-10---14p-10---9-9-9--12p-9-----------------------------------|
|--------------------------------------------------------------------------------------|


|----------------------------------------------------------------------------------------|
|----------------------------------------------------------------------------------------|
|--------(6X)----------------(6X)-----(6X)-----(8X)-----(6X)---(4x)---(4x)---------------|GUIT 2.
|--9-9-9-----------10--9-9-9-------8-8------9-9------11------12-----11-----14---11-------|
|--7-7-7-------10--8---7-7-7-------6-6------7-7------9-------10-----9------12---9--------|
|--------------8-------------------------------------------------------------------------|



|--7--7--7------7-7-7-------------------------------------------------------------|
|--8--8--8------7-7-7-------------------------------------------------------------| CHORUS
|--9--9--9------9-9-9----4-5-5-5-5---4--------------------------------------------|
|--9--9--9------9-9-9----4-5-5-5-5---4---7-h10p9p7--------------------------------|
|------------------------2-3-3-3-3---2--------------------------------------------|
|---------------------------------------------------------------------------------|



|---------------------------------------------------------------------------|
|---------------------------------------------------------------------------|
|----------------------------------------7--4--5---7------------------------|
|-----------------------------9-9--10-9--7--4--5---7------------------------|
|-------10-10-10-10---12-12--------------5--2--3---5------------------------|
|--12-----------------------------------------------------------------------|


  Tremolo picking...............................
|---------------------------------------------------------------------------|
|---------------------------------------------------------------------------|FASTER BRIDGE
|-----------------------------------11-12-----------------------------------|
|---5--4-5--9--9--9---4-4-4-4-------9--9----7--6----------------------------|
|---7--6-7--10-10-10--6-6-6-6-------7--7----9--8----------------------------|
|---7--6-7------------------------------------------------------------------|


|---------------------------------------------------------------------------|
|---------------------------------------------------------------------------|
|--------------10-10-10--9-9--7-6-6-6---------------------------------------|
|---------------------------------------------------------------------------|
|--5-5-5-5------------------------------------------------------------------|
|---------------------------------------------------------------------------|

REPEAT THEME
       CHORUS





************************************

| /   slide up
| \   slide down
| h   hammer-on
| p   pull-off
| ~   vibrato
| +   harmonic
| x   Mute note
| b   Bend
| pb  Pre-bend
| br  Bend release
| pbr Pre-bend release
| brb Bend release bend

************************************
Добавлено: 14.09.2015
Вам также может быть интересно:
Другие материалы по этой песне:
  • Аккорды и текст

Страница создана 07.06.2012
http://primanota.ru/thy-primordial/the-heresy-of-an-age-of-reason-chords.htm
Привет, Гость.
Предлагаем пройти революционный курс по гитаре.
Подарок от PrimaNota.Ru, забирай!