PrimaNota.ru - самый крупный в мире бесплатный архив песенных текстов, аккордов, табулатур и нот


Thy Primordial - Ex Opere Operatu - текст песни, таба, видео

Регистрация Запомнить меня
Войти через:  Facebook Google Twitter Vk Yandex Mail.ru

Thy Primordial - Ex Opere Operatu - текст песни, таба, видео

Печатать
Просмотров: 87
---------------------------------------------------------------------------------------
THY PRIMORDIAL-EX OPERE OPERATU-from THE HERESY OF AN AGE OF REASON 2000 Pulverised rec.
----------------------------------------------------------------------------------------
Tabbed by:NihilView


Tuning:D standard  DGCFAD



|--------------------------------------------------------------------------------------------------|
|----------------0----------------------------------------------------------------0----------------|
|-----------0--------0----------0---------------------------------------------0------0-------0-----|
|----------------------------------------------7-------------7-------------------------------------|
|------7------------------7-----------------8-----8-------8-----8----------7-------------7---------|
|--0-----------------------------------0--------------0----------------0-------------------------0-|


|----------------------------------------------------------------|
|----------------------------------------------------------------| INTRO:
|--------7---------------------------------0------2--------------|
|-----7----------10--------9---------------2------3--------------|
|--8---------8---------8-------------------2------3--------------|
|------------------------------------------0------1--------------|



|----------------------------------------------------------------------------|
|---"------"---"----------------"--------------------------------------------|
|--4-----3---4----3-----7-----4----3-----------------------------------------| VERSE
|--5-----4---5----4-----8-----5----4--------9---7-------7--------------------|
|--7-----6---7----6-sl.-10----7----6----------------10--9----10--9-7---6-----|
|----------------------------------------------------------------------8-----|


|------3------------3---------------2------------2-------------------3----------2-----------5---------|
|----------5-------------5---------------4------------4------------------5----------4-----------7-----|
|--4------------4-------------4-------------5-------------5-----4------------4----------5-----------8-|
|-----------------------------------------------------------------------------------------------------|
|-----------------------------------------------------------------------------------------------------|
|-----------------------------------------------------------------------------------------------------|


|------3--------------2------------------------------------------------|
|----------5--------------4--------------------------------------------|
|--4-----------4--------------5----------------------------------------|
|----------------------------------------7h9-----7---------------------| VERSE FILL
|---------------------------------------------10-9--10-9-6--6----------|
|-----------------------------------------------------------8----------|



|-------------------------------------------------------------------------------------|
|-------------------------------------------------------------------------------------|
|---------12---11--9----12--12--12--10-10-----------12--11-9--------------------------| CHORUS!
|-9-9-9---9----9---9----10--10--10--10-10----9-9-9--9---9--9---2-2-2---4-4-4-4--------| 
|-7-7-7---7----7---7----8---8---8---8--8-----7-7-7--7---7--7---3-3-3---5-5-5-5--------|
|-------------------------------------------------------------------------------------|

  REPEAT VERSE RIFF AND FILL
         INTRO



|---------------------------------------------------------------------------|
|---------------------------------------------------------------------------| BRIDGE
|------------4-4---------------4--2---------------9--8-8--------------------|
|---------------------------------------------------------10--10p9h10p9-7---|
|--2-2-2-2----------0-0-0-0-------------7-7-7-7-----------------------------|
|---------------------------------------------------------------------------|



  INTERLUDE                                                                        BACK CHORDS INTERLUDE
|-----------7-----------------8------------------------------------------------------------------------|
|--------------8------------------10-----------------7-------------------------------------------------|
|---9-9-----------9----9-9------------11----------------8--------9-9-9-9--7--5--------4--5----9-7-5----|
|---------------------------------------------9-9----------10----------------------2--4--5----9-7-5----|
|----------------------------------------------------------------------------------2--2--3----7-5-3----|
|----------------------------------------------------------------------------------0-------------------|


I-------------------------------------------------------------------------------------I
I-------------------------------------------------------------------------------------I
I-------4-------(2x)---------5----------(2x)-----------------(2x)---------------------I
I----------5---------------------7------------------5---------------------------------I
I---7---------7----------8-----------8------------------7------------7-7-7--5--3------I
I-----------------------------------------------8-----------8-------------------------I


 BRIDGE:
 VERSE:
 CHORUS:






************************************

| /   slide up
| \   slide down
| h   hammer-on
| p   pull-off
| ~   vibrato
| +   harmonic
| x   Mute note
| b   Bend
| pb  Pre-bend
| br  Bend release
| pbr Pre-bend release
| brb Bend release bend

************************************
Добавлено: 14.09.2015
Вам также может быть интересно:
Другие материалы по этой песне:
  • Аккорды и текст

Страница создана 26.05.2012
http://primanota.ru/thy-primordial/ex-opere-operatu-chords.htm
Привет, Гость.
Предлагаем пройти революционный курс по гитаре.
Подарок от PrimaNota.Ru, забирай!