PrimaNota.ru - самый крупный в мире бесплатный архив песенных текстов, аккордов, табулатур и нот


Thy Light - Wander Of Solitude - таба, видео

Регистрация Запомнить меня
Войти через:  Facebook Google Twitter Vk Yandex Mail.ru

Thy Light - Wander Of Solitude - таба, видео

Печатать
Просмотров: 119
Intro

Faça a introdução 5 vezes
Get an introduction to 5 times

|-----------------------------------|
|-----------------------------------|
|---------0-------------------------|
|-----3-----3---3-----3--------1-3--|
|---3---3-----3-----3---3----3------|
|-1---------------1--------1--------|


|-----------------------------------|
|-----------------------------------|
|---------3---------------3---------|
|-----6-----6---6-----6-----6---6---|
|---3---3-----3-----3---3-----3-----|
|-4---------------4-----------------|


|-----------------------------------|
|-----------------------------------|
|---------0---------------0---------|
|-----6-----6---6-----6-----6---6---|
|---4---4-----4-----4---4-----4-----|
|-6---------------6-----------------|


|-----------------------------------|
|-----------------------------------|
|-----------------------------------|
|-----3---3-3---3-----3----1--1-3---|
|---3---3-----3-----3---3-----------|
|-1---------------1--------1-1------|

Esse '(7)' significa que é pra tocar 7 vezes bem rapido
This '(7)' means that it is to play 7 times really fast

|----------------------------------------------------------------------------|
|----------------------------------------------------------------------------|
|----------------------------13~(7)-12-10-10--15~(7)-13-12-13-12/8-8-10------|
|-----------8-10/11/13-11-10-------------------------------------------------|
|-8-8-10-11-------------------------------------------------------------10-8-|
|----------------------------------------------------------------------------|



|--------------------------------------------------------|
|-------------------------------------------9-11-11/13-9-|
|-------------------------------------10-12--------------|
|-------------------10/11-10-8/6-8/10--------------------|
|-6/8-8/10-10/11-11--------------------------------------|
|--------------------------------------------------------|

---------------------------------------------|
-11-9-8-9-8-6-8-6-4-6-8-9-11-9-8-4/6-6-------|
---------------------------------------5/6-5-|
---------------------------------------------|
---------------------------------------------|
---------------------------------------------|



|-------------------------------------------------------|
|-------11/13-13/14-16/14-14/13-11/13-16-14-16-13-14-11-|
|-12/13-------------------------------------------------|
|-------------------------------------------------------|
|-------------------------------------------------------|
|-------------------------------------------------------|


------------------------------------------------------------|
-13-9-11-8-9-11-9-6-8-9-8-6-9/11-9-8------------------------|
-------------------------------------8/6-6/5-5--------------|
-----------------------------------------------3--3-5-6-5-3-|
------------------------------------------------------------|
------------------------------------------------------------|


Aqui a introduçao continua, e entra essa base
Here the introduction continues, and enters this base

|-----------------------------------|
|-----------------------------------|
|-----------------------------------|
|-3-3-3-3-3-3-3-3-3-3-3-3-3-3-3-3-3-|
|-3-3-3-3-3-3-3-3-3-3-3-3-3-3-3-3-3-|
|-1-1-1-1-1-1-1-1-1-1-1-1-1-1-1-1-1-|


|-----------------------------------|
|-----------------------------------|
|-----------------------------------|
|-6-6-6-6-6-6-6-6-6-6-6-6-6-6-6-6-6-|
|-6-6-6-6-6-6-6-6-6-6-6-6-6-6-6-6-6-|
|-4-4-4-4-4-4-4-4-4-4-4-4-4-4-4-4-4-|

|-----------------------------------|
|-----------------------------------|
|-----------------------------------|
|-8-8-8-8-8-8-8-8-8-8-8-8-8-8-8-8-8-|
|-8-8-8-8-8-8-8-8-8-8-8-8-8-8-8-8-8-|
|-6-6-6-6-6-6-6-6-6-6-6-6-6-6-6-6-6-|

|-----------------------------------|
|-----------------------------------|
|-----------------------------------|
|-3-3-3-3-3-3-3-3-3-3-3-3-3-3-3-3-3-|
|-3-3-3-3-3-3-3-3-3-3-3-3-3-3-3-3-3-|
|-1-1-1-1-1-1-1-1-1-1-1-1-1-1-1-1-1-|

.....................................
Добавлено: 01.06.2013
Другие материалы по этой песне:
  • Аккорды и текст

Страница создана 01.06.2013
http://primanota.ru/thy-light/wander-of-solitude-chords.htm
Привет, Гость.
Предлагаем пройти революционный курс по гитаре.
Подарок от PrimaNota.Ru, забирай!