PrimaNota.ru - самый крупный в мире бесплатный архив песенных текстов, аккордов, табулатур и нот


Thy Light - Corredor Seco - таба, видео

Регистрация Запомнить меня
Войти через:  Facebook Google Twitter Vk Yandex Mail.ru

Thy Light - Corredor Seco - таба, видео

Печатать
Просмотров: 75
Guitar I (E,A,D,G,B,e)(I tried to tab it on the time, but I don't have much practice at tabs)

------------3----------------------------------------------------------------|
---0---0---0---0-----------0----------8-------7--------0--------8-------7----|
---5---5---5---5----------5-5--------5-5-----5-5------5-5------5-5-----5-5---|
-------------------------7---7------7---7---7---7----7---7----7---7---7---7--|
------------------------7----------7-----7-7-----7--7--------7-----7-7-------|
0~~~~~0~~~0---0~~~~~~~~0----------0-------0--------0--------0-------0--------|

-----------------------------------------------------------------------------|
-------------------------------------------------------------0-------0-------|
------------------------------------------------------------5-5-----5-5------|
----0-4-0---------0-4-0---------0-4-0---------0-4-0--------7---7---7---0-----|
---4-----4~~~~---4-----4~~~~---4-----4~~~~---4-----4~~~~--7-------7----------|
0h2-----------0h2-----------0h2-----------0h2------------0-------0-----------|

-----------------------------------------------------------------------------|
----8-------7------------------------------0------8-------7------------------|
---5-5-----5-5----------------------------5-5----5-5-----5-5-----------------|
--7---7---7---7-----0-4-0-------0-4-0----7---7--7---7---7---7-----0-4-0------|
-7-----7-7-----7---4-----4-----4-----4--7------7-----7-7-----7---4-----4-----|
0-------0-------0h2---------0h2--------0------0-------0-------0h2------------|

-----------------------------------------------------------------------|
------------------0-------0-------0-------0--------0-------0-------0---|
-----------------2-2-----4-4-----7-7-----6-6------2-2-----4-4-----7-7--|
-------0-4-0----4---4---5---5---7---7---7---7----4---4---5---5---7---7-|
------4-----4--4-------5-------5-------7--------4-------5-------5------|
-0-0h2--------2-------3-------7-------5--------2-------3-------7-------|
                                                     (Final)
----------------------------------------------- (2x)-------------------------|
-----------------------------------------------     -----0-------------------|
-----------------------------------------------     ----0--------------------|
-----------------------------------------------     ---4---------------------|
-----5-4-----------5-4-------4-2--------4-2----     --2----------------------|
-2-2-----2-3-3-2-2----2-3-3-2---2-3-3-2----2-3-     -0-----------------------|
(The bass here sounds different, but I thinks it's right)


------------(7)-----------------------------|
(12)--------(7)-----------------------------|
---(12)-----(7)-----------------------------|
-------(12)---------------------------------|
--------------------------------------------|
--------------------------------------------|

Solo (2:00)

--------------------------------------------12-10-9-7-5-5/7--10-9-7-7~~~~-|
------------------------------------------13------------------------------|
------4-5-7-9-10\9-5/7---777-5-4-2/4----14--------------------------------|
--5-7---------------------------------------------------------------------|
--------------------------------------------------------------------------|
--------------------------------------------------------------------------|

---------------------------------------------------|
7-777-10-8-7-7h8p7-7h8p7-5-7-5-5~~-----------------|
---------------------------------------------------|
---------------------------------------------------|
---------------------------------------------------|
---------------------------------------------------|

--------------------------------------------------------------10-9-5/7-2-2----|
-8p7-5h7p5--------------------------3-5---8-888-7-8/10/12-12-7--7-7-------3-3-|
-----------3h4p3------3h4p3---3-4-6-------------------------------------------|
----------------------------5-------------------------------------------------|
------------------------------------------------------------------------------|
------------------------------------------------------------------------------|

------------------|
------------------|
---3h4p3-3-3h4-4--|
5-5-----5---------|
------------------|
------------------|
Добавлено: 16.08.2013
Другие материалы по этой песне:
  • Аккорды и текст

Страница создана 16.08.2013
http://primanota.ru/thy-light/corredor-seco-chords.htm
Привет, Гость.
Предлагаем пройти революционный курс по гитаре.
Подарок от PrimaNota.Ru, забирай!