PrimaNota.ru - самый крупный в мире бесплатный архив песенных текстов, аккордов, табулатур и нот


Thy Light - A Crawling Worm In A World Of Lies - бас-таба, видео

Регистрация Запомнить меня
Войти через:  Facebook Google Twitter Vk Yandex Mail.ru

Thy Light - A Crawling Worm In A World Of Lies - бас-таба, видео

Печатать
Просмотров: 84
Standart tuning

Part 1,2 and 4 play in 8, part 3 in 16. mid play in full.

Part 1 (x4)

|-----------------|-------------------|-----------------|-----------------|
|-----------------|-10-----8-----10---|-----------------|-----------------|
|-8-8-8-8-8-8-8-8-|----8-8---8-8----8-|-6-6-6-6-6-6-6-6-|-6-6-6-6-6-6-6-6-|
|-----------------|-------------------|-----------------|-----------------|

mid (x2) 

|-----------------|-------------------|-----------------|------------------|
|-----------------|-------------------|-----------------|------------------|
|-8---------------|-------------------|-----------------|------------------|
|-----------------|-------------------|-9---------------|-11---------------|

Part 2 (x4)

|-----------------|-----------------|
|-----------------|-----------------|
|-8-8-8-8-x-8-x-8-|-8-8-8-8-x-8-x-8-|
|-----------------------------------|

|-----------------|------------------------|
|-----------------|------------------------|
|-----------------|------------------------|
|-9-9-9-9---9-9-9-|-11-11-11-11---11-11-11-|

Part 3 (x4)

|---------------------------------|---------------------------------|
|---------------------------------|---------------------------------|
|-8-8-8-8-8-8-8-8-8-8-8-8-8-8-8-8-|-8-8-8-8-8-8-8-8-8-8-8-8-8-8-8-8-|
|---------------------------------|---------------------------------|

|-------------------------------------------------|
|-------------------------------------------------|
|-11-11-11-11-11-11-11-11-11-11-11-11-11-11-11-11-|
|-------------------------------------------------|

|-------------------------------------------------|
|-------------------------------------------------|
|-10-10-10-10-10-10-10-10-10-10-10-10-10-10-10-10-|
|-------------------------------------------------|

Part 1 (x4)

Part 3 (x4)

Part 2 (x4)

silent (guitars play their part x4)

Part 4 (x2)

|-----------------|-----------------|-----------------|-----------------|
|-----------------|-----------------|-----------------|-----------------|
|-8-8-8-8-x-8-8-8-|-8-8-8-8-x-8-8-8-|-8-8-8-8-8-8-8-8-|-8-8-8-8-8-8-8-8-|
|-----------------|-----------------|-----------------|-----------------|

|-----------------|-------------------|
|-----------------|-------------------|
|-----------------|-11-----9-----11---|
|-9-9-9-9-9-9-9-9-|----9-9---9-9----9-|

|-------------------------|-------------------------|
|-------------------------|-------------------------|
|-------------------------|-13-------11-------13----|
|-11-11-11-11-11-11-11-11-|----11-11----11-11----11-|

Part 3 (x4)

Part 2 (x3)

Part 2 with diferent ending

|-----------------|-----------------|
|-----------------|-----------------|
|-8-8-8-8-x-8-x-8-|-8-8-8-8-x-8-x-8-|
|-----------------------------------|

|-----------------|------------------------|
|-----------------|------------------------|
|-----------------|---------------13----11-|
|-9-9-9-9---9-9-9-|-11-11-11-11------11----|

ending (x3)

|-----------------|--------------------|
|-----------------|--------------------|
|-8---------------|--------------------| -continuous plaing
|-----------------|--------------------|

|-----------------|--------------------|
|-----------------|--------------------|
|-----------------|--------------------|
|-9-----9-----9---|-11-----11-----11---|

ending

|-----------------|--------------------|
|-----------------|--------------------|
|-8---------------|--------------------| - slowly
|-----------------|--------------------|

|-----------------|--------------------|
|-----------------|--------------------|
|-----------------|-----------8-6-5----| - very slow 
|-9-----9-----9---|-11--------------6--|

Добавлено: 26.10.2013
Другие материалы по этой песне:

Страница создана 28.03.2012
http://primanota.ru/thy-light/a-crawling-worm-in-a-world-of-lies-chords.htm
Привет, Гость.
Предлагаем пройти революционный курс по гитаре.
Подарок от PrimaNota.Ru, забирай!