PrimaNota.ru - самый крупный в мире бесплатный архив песенных текстов, аккордов, табулатур и нот


Thurston Moore - Wonderful Witches - таба, видео

Регистрация Запомнить меня
Войти через:  Facebook Google Twitter Vk Yandex Mail.ru

Thurston Moore - Wonderful Witches - таба, видео

Печатать
Просмотров: 126
-------------------------------------------------------------------------------
                     WONDERFUL WITCHES - Thurston Moore
-------------------------------------------------------------------------------
Tabbed by: Chapman Li (aka SonicYouthRules)
Email: chapman_li@hotmail.com

Tuning: Standard


Q a simple song off this very fine album by Thurston Moore



INTRO/MAIN RIFF (00:00)

e|-------------------------------------------------------------------------|
B|-------------------------------------------------------------------------|
G|-------------------------------------------------------------------------|
D|----------10101010-------------------------------------------------------|
A|--888-1111-8888-8--------------------------------------------------------|
E|--666--99----------------------------------------------------------------|X2


e|-------------------------------------------------------------------------|
B|-------------------------------------------------------------------------|
G|-------------------------------------------------------------------------|
D|---------------------------------------etc-------------------------------|
A|--8-8-8-8-8-8-8-8-8-8-8-8-8-8-8-8-8-8------------------------------------|
E|--6-6-6-6-6-6-6-6-6-6-6-6-6-6-6-6-6-6------------------------------------|




VERSE (00:10)

e|-------------------------------------------------------------------------|
B|-------------------------------------------------------------------------|
G|-------------------------------------------------------------------------|
D|-------------------------------------------------------------------------|
A|--13-13---11-15---13-13-13-13-13-13--------------------------------------|
E|--11-11---9--13---11-11-11-11-11-11--------------------------------------|




CHORUS (00:21)

e|-------------------------------------------------------------------------|
B|-------------------------------------------------------------------------|
G|-------------------------------------------------------------------------|
D|-------------------------------------------------------------------------|
A|--1010-10-10--6-6-6-6---13-13-13-13--8-8-8-8-8---------------------------|
E|--8-8--8--8---4-4-4-4---11-11-11-11--6-6-6-6-6---------------------------| X4



e|-------------------------------------------------------------------------|
B|-------------------------------------------------------------------------|
G|-------------------------------------------------------------------------|
D|---------------------------------------etc-------------------------------|
A|--8-8-8-8-8-8-8-8-8-8-8-8-8-8-8-8-8-8------------------------------------|
E|--6-6-6-6-6-6-6-6-6-6-6-6-6-6-6-6-6-6------------------------------------|


back to Verse riff


| /  slide up
| \  slide down
| h  hammer-on
| p  pull-off
| ~  vibrato
| +  harmonic
| x  Mute note
===============================================================================
Добавлено: 15.03.2012
Другие материалы по этой песне:
  • Аккорды и текст

Страница создана 15.03.2012
http://primanota.ru/thurston-moore/wonderful-witches-chords.htm
Привет, Гость.
Предлагаем пройти революционный курс по гитаре.
Подарок от PrimaNota.Ru, забирай!