PrimaNota.ru - самый крупный в мире бесплатный архив песенных текстов, аккордов, табулатур и нот


Thursday - Stay True - таба, видео

Регистрация Запомнить меня
Войти через:  Facebook Google Twitter Vk Yandex Mail.ru

Thursday - Stay True - таба, видео

Печатать
Просмотров: 64
-------------------------------------------------------------------------------
                             Stay True (intro/verse) - Thursday
-------------------------------------------------------------------------------
Tabbed by: Nate McIntyre
E-mail:

Tuning: Standard

e|---------------------------------------------------------------------------|
B|---------------------------------------------------------------------------|
G|0--------------------------------0-----------------------------------------|
D|---7--4-------0---0-0----4---4-4----7--4-------0---0-0----4---4-4----------|
A|---------5--22--22-2--/55--55-5-----------5--22--22-2--/55--55-5-----------|
E|---------------------------------------------------------------------------|

Repeat several times, then add the part below once the first verse starts.

e|---------------------------------------------------------------------------|
B|---------------------------------------------------------------------------|
G|0--------------------------------0--------------------------------2h4p2---0|
D|---7--4-------0---0-0----4---4-4----7--4-------0---0-0----4---4-4-------4-2|
A|---------5--22--22-2--/55--55-5-----------5--22--22-2--/55--55-5-----------|
E|---------------------------------------------------------------------------|


************************************

| /   slide up
| \   slide down
| h   hammer-on
| p   pull-off
| ~   vibrato
| +   harmonic
| x   Mute note
| b   Bend
| pb  Pre-bend
| br  Bend release
| pbr Pre-bend release
| brb Bend release bend

************************************
Добавлено: 30.05.2016
Другие материалы по этой песне:
  • Аккорды и текст

Страница создана 30.05.2016
http://primanota.ru/thursday/stay-true-chords.htm
Привет, Гость.
Предлагаем пройти революционный курс по гитаре.
Подарок от PrimaNota.Ru, забирай!