PrimaNota.ru - самый крупный в мире бесплатный архив песенных текстов, аккордов, табулатур и нот


Thursday - Resuscitation Of A Dead Man - текст песни, таба, видео

Регистрация Запомнить меня
Войти через:  Facebook Google Twitter Vk Yandex Mail.ru

Thursday - Resuscitation Of A Dead Man - текст песни, таба, видео

Печатать
Просмотров: 82
----------------------------------------------------------------------------
                                 Thursday
                 Resuscitation of a Dead Man (feat. Tim McIlrane)
----------------------------------------------------------------------------

Hello, let me start off by saying that this song is probably the best song by Thursday,
because it is so awesome to be able to hear 2 awesome singers in one song, Tim does
and two it is so cool on guitar! Just to spice things up a bit, I started the tab on 
Hehe. Enjoy!

Username: dkm817 (same on X box live)
Email: guitardrums@rockfan.com

Guitar 1 Rhythmic (D A D G B E)
Guitar 2 Lead     (D A D G B E)

Verse (Starts off with a drum breakdown) x2

Guitar 1
E----------------------------------------------------------------|
B----------------------------------------------------------------|
G-5-4-4-4-4-4-4-4-x-x-x-x-x-x-x-x-5-4-4-4-4-4-4-4-x-x-x-x-x-x-x-x|
D-x-x-x-x-x-x-x-x-x-x-x-x-x-x-x-x-x-x-x-x-x-x-x-x-x-x-x-x-x-x-x-x|
A-3-2-2-2-2-2-2-2-x-x-x-x-x-x-x-x-3-2-2-2-2-2-2-2-x-x-x-x-x-x-x-x|
D----------------------------------------------------------------|

Guitar 2
E-3-0-0-7-0-0-3-0-0-7-0-0-3-0-0-7-0-0-3-0-0-7-0-0|
B------------------------------------------------|
G------------------------------------------------|
D------------------------------------------------|
A------------------------------------------------|
D------------------------------------------------|

Guitar 1
E------------------------------------------------------|
B------------------------------------------------------|
G-5-4-4-4-4-4-4-4-x-x-x-x-x-x-x-x-5-5-5-5~~~-4-4-4-4~~~|
D-x-x-x-x-x-x-x-x-x-x-x-x-x-x-x-x-x-x-x-x----x-x-x-x---|
A-3-2-2-2-2-2-2-2-x-x-x-x-x-x-x-x-3-3-3-3~~~-2-2-2-2~~~|
D---------------------------------5-5-5-5~~~-4-4-4-4~~~|

Guitar 2
E-3-0-0-7-0-0-3-0-0-7-0-0-7p0---------7p0--------|
B-----------------------------7p0-8p0-----7p0-8p0|
G------------------------------------------------|
D------------------------------------------------|
A------------------------------------------------|
D------------------------------------------------|


Pre Chorus

Guitar 1
E---------------------------------------------------|
B---------------------------------------------------|
G-4-4-4-4~~~-5-5-5-5~~~-7-7-7-7~~~------------------|
D-4-4-4-4~~~-5-5-5-5~~~-7-7-7-7~~~-x-x-x-x-x-x-x-x--| x2
A-2-2-2-2~~~-3-3-3-3~~~-5-5-5-5~~~-x-x-x-x-x-x-x-x--|
D----------------------------------x-x-x-x-x-x-x-x--|

Guitar 2
E--------------------------------------------------|
B--------------------------------------------------|
G-4-4-4-4~~~-5-5-5-5~~~-7-7-7-7~~~-----------------|
D-x-x-x-x----x-x-x-x----x-x-x-x----x-x-x-x-x-x-x-x-|
A-2-2-2-2~~~-3-3-3-3~~~-5-5-5-5~~~-x-x-x-x-x-x-x-x-|
D----------------------------------x-x-x-x-x-x-x-x-|

Guitar 2
E-----------------------------------------|
B-----------------------------------------|
G-4-4-4-4~~~-5-5-5-5~~~-7-7-7-7~~~--------|
D-x-x-x-x----x-x-x-x----x-x-x-x-----------|
A-2-2-2-2~~~-3-3-3-3~~~-5-5-5-5~~~-9*~~~~-|
D-----------------------------------------|

Chorus

Guitar 1 & 2
E--------------------------------------------|
B--------------------------------------------|
G-----------7-7--7-7~-----------5-5-5-5~~~~--|
D-2-2--2-2~-7-7--7-7~-7-7--7-7~-5-5-5-5~~~~--| x3
A-2-2--2-2~-5-5--5-5~-7-7--7-7~-3-3-3-3~~~~--|
D-2-2--2-2~-----------7-7--7-7~--------------|

Guitar 1 & 2
E-----------------------------------------------|
B-----------------------------------------------|
G-----------7-7--7-7~-----------5-5-5-5-5-5-5-5-|
D-2-2--2-2~-7-7--7-7~-7-7--7-7~-5-5-5-5-5-5-5-5-|
A-2-2--2-2~-5-5--5-5~-7-7--7-7~-3-3-3-3-3-3-3-3-|
D-2-2--2-2~-----------7-7--7-7~-----------------|

Break off (No Guitar 1)

Guitar 2
E-3-0-0-7-0-0-3-0-0-7-0-0-3-0-0-7-0-0-3-0-0-7-0-0--|
B--------------------------------------------------|
G--------------------------------------------------|
D--------------------------------------------------| x3
A--------------------------------------------------|
D--------------------------------------------------|

Guitar 2
E-3-0-0-7-0-0-3-0-0-7-0-0-7p0---------7p0---------|
B-----------------------------7p0-8p0-----7p0-8p0-|
G-------------------------------------------------|
D-------------------------------------------------|
A-------------------------------------------------|
D-------------------------------------------------|

Verse x2

Guitar 1
E----------------------------------------------------------------|
B----------------------------------------------------------------|
G-5-4-4-4-4-4-4-4-x-x-x-x-x-x-x-x-5-4-4-4-4-4-4-4-x-x-x-x-x-x-x-x|
D-x-x-x-x-x-x-x-x-x-x-x-x-x-x-x-x-x-x-x-x-x-x-x-x-x-x-x-x-x-x-x-x|
A-3-2-2-2-2-2-2-2-x-x-x-x-x-x-x-x-3-2-2-2-2-2-2-2-x-x-x-x-x-x-x-x|
D----------------------------------------------------------------|

Guitar 2
E-3-0-0-7-0-0-3-0-0-7-0-0-3-0-0-7-0-0-3-0-0-7-0-0|
B------------------------------------------------|
G------------------------------------------------|
D------------------------------------------------|
A------------------------------------------------|
D------------------------------------------------|

Guitar 1
E------------------------------------------------------|
B------------------------------------------------------|
G-5-4-4-4-4-4-4-4-x-x-x-x-x-x-x-x-5-5-5-5~~~-4-4-4-4~~~|
D-x-x-x-x-x-x-x-x-x-x-x-x-x-x-x-x-x-x-x-x----x-x-x-x---|
A-3-2-2-2-2-2-2-2-x-x-x-x-x-x-x-x-3-3-3-3~~~-2-2-2-2~~~|
D---------------------------------5-5-5-5~~~-4-4-4-4~~~|

Guitar 2
E-3-0-0-7-0-0-3-0-0-7-0-0-7p0---------7p0--------|
B-----------------------------7p0-8p0-----7p0-8p0|
G------------------------------------------------|
D------------------------------------------------|
A------------------------------------------------|
D------------------------------------------------|


Pre Chorus

Guitar 1
E---------------------------------------------------|
B---------------------------------------------------|
G-4-4-4-4~~~-5-5-5-5~~~-7-7-7-7~~~------------------|
D-4-4-4-4~~~-5-5-5-5~~~-7-7-7-7~~~-x-x-x-x-x-x-x-x--| x2
A-2-2-2-2~~~-3-3-3-3~~~-5-5-5-5~~~-x-x-x-x-x-x-x-x--|
D----------------------------------x-x-x-x-x-x-x-x--|

Pre Chorus

Guitar 1
E---------------------------------------------------|
B---------------------------------------------------|
G-4-4-4-4~~~-5-5-5-5~~~-7-7-7-7~~~------------------|
D-4-4-4-4~~~-5-5-5-5~~~-7-7-7-7~~~-x-x-x-x-x-x-x-x--| x2
A-2-2-2-2~~~-3-3-3-3~~~-5-5-5-5~~~-x-x-x-x-x-x-x-x--|
D----------------------------------x-x-x-x-x-x-x-x--|

Guitar 2
E---------------------------------------------------|
B---------------------------------------------------|
G-4-4-4-4~~~-5-5-5-5~~~-7-7-7-7~~~------------------|
D-x-x-x-x----x-x-x-x----x-x-x-x----x-x-x-x-x-x-x-x--| x2
A-2-2-2-2~~~-3-3-3-3~~~-5-5-5-5~~~-x-x-x-x-x-x-x-x--|
D----------------------------------x-x-x-x-x-x-x-x--|


Chorus

Guitar 1 & 2
E--------------------------------------------|
B--------------------------------------------|
G-----------7-7--7-7~-----------5-5-5-5~~~~--|
D-2-2--2-2~-7-7--7-7~-7-7--7-7~-5-5-5-5~~~~--| x3
A-2-2--2-2~-5-5--5-5~-7-7--7-7~-3-3-3-3~~~~--|
D-2-2--2-2~-----------7-7--7-7~--------------|

Guitar 1 & 2
E-----------------------------------------------|
B-----------------------------------------------|
G-----------7-7--7-7~-----------5-5-5-5-5-5-5-5-|
D-2-2--2-2~-7-7--7-7~-7-7--7-7~-5-5-5-5-5-5-5-5-|
A-2-2--2-2~-5-5--5-5~-7-7--7-7~-3-3-3-3-3-3-3-3-|
D-2-2--2-2~-----------7-7--7-7~-----------------|

Breakdown 1

Guitar 1
E---------------------------------------------------------|
B---------------------------------------------------------|
G---------------------------------------------------------|
D-4--4--4------4--4--4------5--5--5------7--7--7--7--7--7-|
A-4--4--4------4--4--4------5--5--5------7--7--7--7--7--7-|
D-4--4--4------4--4--4------5--5--5------7--7--7--7--7--7-|

Guitar 2
E---------------------------------------------------------|
B---------------------------------------------------------|
G-4--4--4------4--4--4------5--5--5------7--7--7--7--7--7-|
D-4--4--4------4--4--4------5--5--5------7--7--7--7--7--7-|
A-2--2--2------2--2--2------3--3--3------5--5--5--5--5--5-|
D---------------------------------------------------------|

Guitar 1
E--------------------------------------------------------------|
B--------------------------------------------------------------|
G--------------------------------------------------------------|
D-4--4--4------4--4--4--x-x-x-x--5--5--5------7--7--7--7--7--7-|
A-4--4--4------4--4--4--x-x-x-x--5--5--5------7--7--7--7--7--7-|
D-4--4--4------4--4--4--x-x-x-x--5--5--5------7--7--7--7--7--7-|

Guitar 2
E------------------------------------------------------------|
B----------0~~~----------0~~~----------0~~~------------------|
G-4--4--4--0~~~-4--4--4--0~~~-5--5--5--0~~~-7--7--7--7--7--7-|
D-4--4--4-------4--4--4-------5--5--5-------7--7--7--7--7--7-|
A-2--2--2-------2--2--2-------3--3--3-------5--5--5--5--5--5-|
D------------------------------------------------------------|

Breakdown 2

Guitar 1
E------------------------------------------------------------------|
B------------------------------------------------------------------|
G-4-4-4-4-4-4-4-4-4-4-4-4-4-4-4-4-5-5-5-5-5-5-5-5-7-7-7-7-7-7-7-7--|
D-4-4-4-4-4-4-4-4-4-4-4-4-4-4-4-4-5-5-5-5-5-5-5-5-7-7-7-7-7-7-7-7--| x2
A-2-2-2-2-2-2-2-2-2-2-2-2-2-2-2-2-3-3-3-3-3-3-3-3-5-5-5-5-5-5-5-5--|
D------------------------------------------------------------------|

Guitar 2 (not 100% sure about, there might be any pull offs)
E-19-19p0-15-15p0-17-17p0-14-14p0-15-15-14p0-12p0-10p0-12p0-14p0  |
B---------------------------------------------------------------  |
G---------------------------------------------------------------  |
D---------------------------------------------------------------  |
A---------------------------------------------------------------  |
D---------------------------------------------------------------  |
                                                                  |
Guitar 2                                                          |---- x2
E-19-19p0-15-15p0-17-17p0-14-14p0-15-15-14p0-12p0-12-14-15-14--17~|
B-----------------------------------------------------------------|
G-----------------------------------------------------------------|
D-----------------------------------------------------------------|
A-----------------------------------------------------------------|
D-----------------------------------------------------------------|

Guitar 1
E-----------------------------------------------------------------|
B-----------------------------------------------------------------|
G-4-4-4-4-4-4-4-4-4-4-4-4-4-4-4-4-5-5-5-5-5-5-5-5-5-5-5-5-5-5-5-5-|
D-4-4-4-4-4-4-4-4-4-4-4-4-4-4-4-4-5-5-5-5-5-5-5-5-5-5-5-5-5-5-5-5-|
A-2-2-2-2-2-2-2-2-2-2-2-2-2-2-2-2-3-3-3-3-3-3-3-3-3-3-3-3-3-3-3-3-|
D-----------------------------------------------------------------|

Guitar 2
E-22b~~~~~~~~~~~~~~~~~~~~~~~~~~~~~~~~~~~~~~~~~~~~~~~~~~~~~~~~12\0
B----------------------------------------------------------------|
G----------------------------------------------------------------|
D----------------------------------------------------------------|
A----------------------------------------------------------------|
D----------------------------------------------------------------|

Interlude 1

Guitar 1 & 2
E---------------------------------------------|
B---------------------------------------------|
G---------------------------------------------|
D-0~~~~WHAMMY~~~~~~~~-------Long-Rest---------|
A-0~~~~WHAMMY~~~~~~~~-------------------------|
D-0~~~~WHAMMY~~~~~~~~-------------------------|

Guitar 2
E---------------------------------------------------------------------|
B---------------------------------------------------------------------|
G---------------------------------------------------------------------|
D-2~~-/5~-\2~~-/5~-\2~-/5~-/7~~~-\2~~-/5~-/7~-\4~~-2~~-/5~-/7~~~-/5\2-|
A---------------------------------------------------------------------|
D---------------------------------------------------------------------|

Interlude 2 x2

Guitar 1
E-------------------------------------------------------------|
B-------------------------------------------------------------|
G----------------4-4~-4~-4-5~~~---------------7-7-7-7-9-9-9-9-|
D-2-2~-2~-2-2~~~-4-4~-4~-4-5~~~-2-2~-2~-2-2~~-7-7-7-7-9-9-9-9-|
A-2-2~-2~-2-2~~~-2-2~-2~-2-3~~~-2-2~-2~-2-2~~-5-5-5-5-7-7-7-7-|
D-2-2~-2~-2-2~~~----------------2-2~-2~-2-2~~-----------------|

Guitar 2
E----------------------------------------------11-11-11-11-12-12-12-16-|
B----------------------------------------------15-15-15-15-16-16-16-16-|
G----------------4-4~-4~-4-5~~~----------------------------------------|
D-2-2~-2~-2-2~~~-x-x--x--x-x----2-2~-2~-2-2~~~-------------------------|
A-2-2~-2~-2-2~~~-2-2~-2~-2-3~~~-2-2~-2~-2-2~~~-------------------------|
D-2-2~-2~-2-2~~~----------------2-2~-2~-2-2~~~-------------------------|

Chorus

Guitar 1 & 2
E--------------------------------------------|
B--------------------------------------------|
G-----------7-7--7-7~-----------5-5-5-5~~~~--|
D-2-2--2-2~-7-7--7-7~-7-7--7-7~-5-5-5-5~~~~--| x3
A-2-2--2-2~-5-5--5-5~-7-7--7-7~-3-3-3-3~~~~--|
D-2-2--2-2~-----------7-7--7-7~--------------|

Guitar 1 & 2
E-----------------------------------------------|
B-----------------------------------------------|
G-----------7-7--7-7~-----------5-5-5-5-5-5-5-5-|
D-2-2--2-2~-7-7--7-7~-7-7--7-7~-5-5-5-5-5-5-5-5-|
A-2-2--2-2~-5-5--5-5~-7-7--7-7~-3-3-3-3-3-3-3-3-|
D-2-2--2-2~-----------7-7--7-7~-----------------|

Tab Legend
h  -  hammer-on
p  -  pull-off
/  -  slide up
\  -  slide down
ps/-  pickslide up
ps\-  pickslide down
~  -  let ring
pm.-  palm mute
b  -  bend
r  -  return from bend
*  -  harmonic

There you go! Cool song, cool tab (hopefully), I think my job is done for this tab. If
is anything wrong, just tell me or just make corrections and put it on your version of
tab. Also email if you want me to do any other tabs from these guys. And one last 
ROCK OUT!!!!
Добавлено: 13.06.2012
Другие материалы по этой песне:
  • Аккорды и текст

Страница создана 13.06.2012
http://primanota.ru/thursday/resuscitation-of-a-dead-man-chords.htm
Привет, Гость.
Предлагаем пройти революционный курс по гитаре.
Подарок от PrimaNota.Ru, забирай!