PrimaNota.ru - самый крупный в мире бесплатный архив песенных текстов, аккордов, табулатур и нот


Thursday - Other Side Of The Crash - текст песни, таба, бас-таба, видео

Регистрация Запомнить меня
Войти через:  Facebook Google Twitter Vk Yandex Mail.ru

Thursday - Other Side Of The Crash - текст песни, таба, бас-таба, видео

Печатать
Просмотров: 91
"the other side of the crash" by thursday
tabbed by sleepytime trio May 7th 2006

Intro - Guitar 1

e-------------------------------------------------------------------|
b-------------------------------------------------------------------|
g-------------------------------------------------------------------|
d-55555555--12-12-12-12-12-12-12--10-10-10-10-10-10-10--33333333----|
a-55555555--12-12-12-12-12-12-12--10-10-10-10-10-10-10--33333333----|
D-55555555--12-12-12-12-12-12-12--10-10-10-10-10-10-10--33333333----|

Intro - Guitar 2

e------------------------------------------------------------------------|
b-10-10-10-10-10-10--11-11-11-11-11-11-11-10-10-10-10-10--6-6-6--8-8-8---|
g------------------------------------------------------------------------|
d------------------------------------------------------------------------|
a------------------------------------------------------------------------|
D------------------------------------------------------------------------|

Verses - Guitar 1

e-------------------------------------------------------------|
b--11111111111111--10101010101010--666666666-8888-6666--------|
g--12121212121212--10101010101010--777777777-7777-7777--------|
d-------------------------------------------------------------|
a-------------------------------------------------------------|
D-------------------------------------------------------------|

Guitar 2

e----------------------------------------------------------|
b-1111111111111111--101010101010101010101010101010101010---|
g-1212121212121212--101010101010101010101010101010101010---|
d-x-x-x-x-x-x-x-x---x-x-x-x-x-x-x-x-x-x-x-x-x-x-x-x-x-x----|
a-1010101010101010--8-8-8-8-8-8-8-8-8-8-8-8-8-8-8-8-8-8----|
D----------------------------------------------------------|

Chorus/prechorus (pre chorus = "car crash came, car crash went, so i went along with 
- guitar 1

e----------------------------------------|
b----------------------------------------|
g----------------------------------------|
d-5-5-5-5-5-5-5--8-8-8-8-8--1-1-1-1-1----|
a-5-5-5-5-5-5-5--8-8-8-8-8--1-1-1-1-1----|
D-5-5-5-5-5-5-5--8-8-8-8-8--1-1-1-1-1----|

Prechorus - Guitar 2

e---------------------------------------------------|
b---------------------------------------------------|
g-15-15-15-15-15-15-15-15-19-19-19-19-12-12-12-12---|
d---------------------------------------------------|
a---------------------------------------------------|
D---------------------------------------------------|

Chorus - guitar 2

e---------------------------|
b---------------------------|
g--17/18^-18^-18^-17-15~~---|
d---------------------------|
a---------------------------|
D---------------------------|

Verse 2 Guitar 1

e-----------------------------------------------------|
b-11-11-11-11-11-11-11-11--10-10-10-10--10-10-10-10---|
g-12-12-12-12-12-12-12-12--12-12-12-12--10-10-10-10---|
d-----------------------------------------------------|
a-----------------------------------------------------|
D-----------------------------------------------------|

Both guitars part after 2nd chorus before it starts to go quiet

e----------------|
b----------------|
g----------------|
d-5-0-5-0-5-0-5--|
a-5-0-5-0-5-0-5--|
D-5-0-5-0-5-0-5--|

feed back until he starts to sing

Guitar 1"the iv drips the days drag on...." - kinda improv on this until outro cause 
what they do live  (guitar 2 still feeding back)

e------------------------------------------|
b---------------8-----------------10-------|
g-12----10---10----12---10---10---10-------|
d-12----12---10----12---12---10------------|
a------------------------------------------|
D------------------------------------------|

when he sings "keep crashing this car over..."

guitar 1

e------------------------------|
b------------------------------|
g-12---10--------12------10----|
d-12---12----12------12--------|
a------------------------------|
D------------------------------|

Guitar 2

e----------------------------------------|
b-1111111111111111--101010101010101010---|
g-1212121212121212--121212121212121212---|
d----------------------------------------|
a----------------------------------------|
D----------------------------------------|

Outro

Guitar 1 - keep strumming this

e------|
b------|
g------|
d-12---|
a-12---|
D-12---|

Guitar 2 - keep strumming first chord,then towards end switch to 2nd chord - listen and 
will understand how it goes

e-----------|
b-----------|
g-14---19---|
d-x----x----|
a-12---17---|
D-----------|
Добавлено: 20.09.2013
Другие материалы по этой песне:
  • Аккорды и текст

Страница создана 09.03.2012
http://primanota.ru/thursday/other-side-of-the-crash-chords.htm
Привет, Гость.
Предлагаем пройти революционный курс по гитаре.
Подарок от PrimaNota.Ru, забирай!