PrimaNota.ru - самый крупный в мире бесплатный архив песенных текстов, аккордов, табулатур и нот


Thursday - Love Has Led Us Astray - текст песни, таба, видео

Регистрация Запомнить меня
Войти через:  Facebook Google Twitter Vk Yandex Mail.ru

Thursday - Love Has Led Us Astray - текст песни, таба, видео

Печатать
Просмотров: 261
----------------------------------------------------------------------------
                                 Thursday
                          Love Has Led Us Astray
----------------------------------------------------------------------------

Hello, first off, I would like to thank Eonbluapocalyp for the suggestion of making the
for this song, and now it is one of my favorite songs by them! I like it, one, because
guitar part has some nice pieces to it, and two, it is a smooth, calming song that I 
lay down, play it, and relax. It's a cure after a long, boring day at school. Enjoy!

Username: dkm817 (same on X box live)
Email: guitardrums@rockfan.com

Guitar 1 Rhythmic (D A D G B E)
Guitar 2 Lead     (D A D G B E) (Both Clean Throughout the song)

Intro 1

Guitar 1
E----------------------------------------------------------------------|
B----------------------------------------------------------------------|
G----------------------------------------------------------------------|
D-4-4-4-4-4-4-4-4-4h5-5-5-5-5-5-5-5-5-4-4-4-4-4-4-4-4-4-4-4-4-4-4-4-4--| x4
A-2-2-2-2-2-2-2-2-2---2-2-2-2-2-2-2-2-0-0-0-0-0-0-0-0-1-1-1-1-1-1-1-1--|
D----------------------------------------------------------------------|

Intro 2

Guitar 1
E----------------------------------------------------------------------|
B----------------------------------------------------------------------|
G----------------------------------------------------------------------|
D-4-4-4-4-4-4-4-4-4h5-5-5-5-5-5-5-5-5-4-4-4-4-4-4-4-4-4-4-4-4-4-4-4-4--| x2
A-2-2-2-2-2-2-2-2-2---2-2-2-2-2-2-2-2-0-0-0-0-0-0-0-0-1-1-1-1-1-1-1-1--|
D----------------------------------------------------------------------|

Guitar 2
E----------------------------------------------------|
B---7~~-5~~-----5~~~-----5---5---5---5---5---5---5---|
G-7---------7-6------6-7---7---7---7---6---6---6---6-|
D----------------------------------------------------|
A----------------------------------------------------|
D----------------------------------------------------|

Guitar 2
E------------------------------------------------------|
B---7~~-5~~-----5~~~-----5---5---5---5---5---5---5---5-|
G-7---------7-6------6-7---7---7---7---6---6---6---6---|
D------------------------------------------------------|
A------------------------------------------------------|
D------------------------------------------------------|

Verse 1

Guitar 1
E----------------------------------------------------------------------|
B----------------------------------------------------------------------|
G----------------------------------------------------------------------|
D-4-4-4-4-4-4-4-4-4h5-5-5-5-5-5-5-5-5-4-4-4-4-4-4-4-4-4-4-4-4-4-4-4-4--| x2
A-2-2-2-2-2-2-2-2-2---2-2-2-2-2-2-2-2-0-0-0-0-0-0-0-0-1-1-1-1-1-1-1-1--|
D----------------------------------------------------------------------|

Pre Chorus

Guitar 1
E---------------------------------------------------------------|
B-----------------------------------------------------2~~~------|
G-----------------------------------------------------2~~~------|
D-4-4-4-5-5-5-5-5-4-4-4-4-4-4-4-4-4-4-5-5-5-5-5-4-4-4-4-4-4-4-4-|
A-2-2-2-2-2-2-2-2-0-0-0-0-0-0-0-0-2-2-2-2-2-2-2-0-0-0-0-0-0-0-0-|
D---------------------------------------------------------------|

Guitar 1
E---------------------------------------------------------------|
B-----------------------------------------------------5~~~------|
G---------------------------------------------------------------|
D-4-4-4-5-5-5-5-5-4-4-4-4-4-4-4-4-4-4-5-5-5-5-5-4-4-4-4-4-4-4-4-|
A-2-2-2-2-2-2-2-2-0-0-0-0-0-0-0-0-2-2-2-2-2-2-2-0-0-0-0-0-0-0-0-|
D---------------------------------------------------------------|

Guitar 2
E----------------------------------|
B-------2-2-2-2-2-3-3-3-5-5-5-5-5--|
G-4-4-4----------------------------|
D----------------------------------| x2
A----------------------------------|
D----------------------------------|

Guitar 2
E--------------------------------------|
B---------2-2-----3-3-5-5-5-5-5-5-5-5--|
G-4-4-----x-x-----x-x------------------|
D-x-x-----x-x-----x-x------------------| x2
A-2-2-----2-2-----2-2------------------|
D--------------------------------------|

Chorus 1

Guitar 2
E--------------------------0~-------0-------|
B-------------------5~~~------0-3-----0-3-0-|
G----4~-4~----4-----4~~~--------------------|
D----4~-4~-2~-4-2/9-x-----------------------|
A-2~-2~-2~-2~-2-2/9-2~~~-2--------2---------|
D----------2~---2/9-------------------------|

Guitar 2
E--------------------------0~-------0-------|
B-------------------5~~~------0-3-----0-3-0-|
G----4~-4~----------4~~~--------------------|
D----5~-5~-2~-5-2/9-x-----------------------|
A----5~-5~-2~-5-2/9-2~~~-2--------2---------|
D-5~-5~-5~-2~-5-2/9-------------------------|

Break off

No Guitar Part

Verse 2

Guitar 1
E----------------------------------------------------------------------|
B----------------------------------------------------------------------|
G----------------------------------------------------------------------|
D-4-4-4-4-4-4-4-4-4h5-5-5-5-5-5-5-5-5-4-4-4-4-4-4-4-4-4-4-4-4-4-4-4-4--| x4
A-2-2-2-2-2-2-2-2-2---2-2-2-2-2-2-2-2-0-0-0-0-0-0-0-0-1-1-1-1-1-1-1-1--|
D----------------------------------------------------------------------|

Guitar 2
E--------------------------------|
B-3~~~~~-2~~~~~-------------2~~~-|
G-4~~~~~-4~~~~~-2~~~~~-2~~~-3~~~-|
D-4~~~~~-4~~~~~-4~~~~~-2~~~-3~~~-|
A-2~~~~~-2~~~~~-0~~~~~-0~~~-1~~~-|
D--------------------------------|

Guitar 2
E------0-0-0--0-0-0------3-3-3--2-2-2------0-0-0--0-0-0-----------|
B-3~~~--------------2~~~-------------------------------------2~~~-|
G-4~~~--------------4~~~--------------2~~~--------------2~~~-3~~~-|
D-4~~~--------------4~~~--------------4~~~--------------2~~~-3~~~-|
A-2~~~--------------2~~~--------------0~~~--------------0~~~-1~~~-|
D-----------------------------------------------------------------|

Guitar 2
E----------------------------------------------------|
B---7~~-5~~-----5~~~-----5---5---5---5---5---5---5---|
G-7---------7-6------6-7---7---7---7---6---6---6---6-|
D----------------------------------------------------|
A----------------------------------------------------|
D----------------------------------------------------|

Guitar 2
E------------------------------------------------------|
B---7~~-5~~-----5~~~-----5---5---5---5---5---5---5---5-|
G-7---------7-6------6-7---7---7---7---6---6---6---6---|
D------------------------------------------------------|
A------------------------------------------------------|
D------------------------------------------------------|

Pre Chorus

Guitar 1
E---------------------------------------------------------------|
B-----------------------------------------------------2~~~------|
G-----------------------------------------------------2~~~------|
D-4-4-4-5-5-5-5-5-4-4-4-4-4-4-4-4-4-4-5-5-5-5-5-4-4-4-4-4-4-4-4-|
A-2-2-2-2-2-2-2-2-0-0-0-0-0-0-0-0-2-2-2-2-2-2-2-0-0-0-0-0-0-0-0-|
D---------------------------------------------------------------|

Guitar 1
E---------------------------------------------------------------|
B-----------------------------------------------------5~~~------|
G---------------------------------------------------------------|
D-4-4-4-5-5-5-5-5-4-4-4-4-4-4-4-4-4-4-5-5-5-5-5-4-4-4-4-4-4-4-4-|
A-2-2-2-2-2-2-2-2-0-0-0-0-0-0-0-0-2-2-2-2-2-2-2-0-0-0-0-0-0-0-0-|
D---------------------------------------------------------------|

Guitar 2
E----------------------------------|
B-------2-2-2-2-2-3-3-3-5-5-5-5-5--|
G-4-4-4----------------------------|
D----------------------------------| x2
A----------------------------------|
D----------------------------------|

Guitar 2
E--------------------------------------|
B---------2-2-----3-3-5-5-5-5-5-5-5-5--|
G-4-4-----x-x-----x-x------------------|
D-x-x-----x-x-----x-x------------------| x2
A-2-2-----2-2-----2-2------------------|
D--------------------------------------|

Chorus 2

Guitar 2
E--------------------------0~-------0-------|
B-------------------5~~~------0-3-----0-----|
G----4~-4~----4-----4~~~----------------4-0-|
D----4~-4~-2~-4-2/9-x-----------------------|
A-2~-2~-2~-2~-2-2/9-2~~~-2--------2---------|
D----------2~---2/9-------------------------|

Guitar 2
E--------------------------0~-------0-------|
B-------------------5~~~------0-3-----0-----|
G----4~-4~----------4~~~----------------4-0-|
D----5~-5~-2~-5-2/9-x-----------------------|
A----5~-5~-2~-5-2/9-2~~~-2--------2---------|
D-5~-5~-5~-2~-5-2/9-------------------------|

Guitar 2
E--------------------------0~-------0-------|
B-------------------5~~~------0-3-----0-3-0-|
G----4~-4~----4-----4~~~--------------------|
D----4~-4~-2~-4-2/9-x-----------------------|
A-2~-2~-2~-2~-2-2/9-2~~~-2--------2---------|
D----------2~---2/9-------------------------|

Guitar 2
E--------------------------0~-------0-------|
B-------------------5~~~------0-3-----0-----|
G----4~-4~----------4~~~----------------4---|
D----5~-5~-2~-5-2/9-x-----------------------|
A----5~-5~-2~-5-2/9-2~~~-2--------2-------2-|
D-5~-5~-5~-2~-5-2/9-------------------------|


Breakdown 1

No Guitar Part

Breakdown 2

Guitar 1
E----------------------------------|
B----------------------------------|
G----------------------------------|
D-x-x-x-x-x-x-x-x-x-x-x-x-x-x-x-x--| x8
A-x-x-x-x-x-x-x-x-x-x-x-x-x-x-x-x--|
D-x-x-x-x-x-x-x-x-x-x-x-x-x-x-x-x--|

Guitar 2
E----------------------------------------|
B-----------7~~-5~~---------5~~----------|
G---------7---------7~~-6~~-----6~~------|
D-----------------------------------7~~--| x4
A----------------------------------------|
D----------------------------------------|

Chorus 2

Guitar 1 & 2
E--------------------------------------------------|
B--------------------------------------------------|
G--------------------------------------------------|
D-5-5-5-5-5-5-5-5-2-2-2-2-2-2/9-9-9-9-9-9-9-9-9-9--| x3
A-5-5-5-5-5-5-5-5-2-2-2-2-2-2/9-9-9-9-9-9-9-9-9-9--|
D-5-5-5-5-5-5-5-5-2-2-2-2-2-2/9-9-9-9-9-9-9-9-9-9--|

Guitar 1
E-------------------------------------------------|
B-------------------------------------------------|
G-------------------------------------------------|
D-5-5-5-5-5-5-5-5-2-2-2-2-2-2/8-9-9-9-9-9-9-9-9-9-|
A-5-5-5-5-5-5-5-5-2-2-2-2-2-2/9-9-9-9-9-9-9-9-9-9-|
D-5-5-5-5-5-5-5-5-2-2-2-2-2-2/9-9-9-9-9-9-9-9-9-9-|

E-----------------------------------------------------|
B-----------------------------------------------------|
G-----------------------------11-11-11-11-11-11-11-11-|
D-5-5-5-5-5-5-5-5-2-2-2-2-2-2-------------------------|
A-5-5-5-5-5-5-5-5-2-2-2-2-2-2-------------------------|
D-5-5-5-5-5-5-5-5-2-2-2-2-2-2-------------------------|


Interlude

Guitar 1
E--------------------------------------------------|
B--------------------------------------------------|
G--------------------------------------------------|
D-5-5-5-5-5-5-5-5-2-2-2-2-2-2/9-9-9-9-9-9-9-9-9-9--| x8
A-5-5-5-5-5-5-5-5-2-2-2-2-2-2/9-9-9-9-9-9-9-9-9-9--|
D-5-5-5-5-5-5-5-5-2-2-2-2-2-2/9-9-9-9-9-9-9-9-9-9--|

Guitar 2
E-----------------------------------------------------------|
B-------------10----------------------------10--------------|
G----11----------------------11----11----11-----------------|
D-12----14-12----12-12-12-12----12----12-------12-14-12-12--| x3
A-----------------------------------------------------------|
D-----------------------------------------------------------|

Guitar 2
E----------------------------------------------10----------|
B-------------10----------------------------10----10-------|
G----11----------------------11----11----11----------11----|
D-12----14-12----12-12-12-12----12----12----------------12-|
A----------------------------------------------------------|
D----------------------------------------------------------|

Guitar 2
E----------------10----------------------------------------|
B-------------10----10----------------------10-------------|
G----11----------------11----11----11----11----------------|
D-12----14-12-------------12----12----12-------12-14-12-12-|
A----------------------------------------------------------|
D----------------------------------------------------------|

Guitar 2
E----------------------------------------------10----------|
B-------------10----------------------------10----10-------|
G----11----------------------11----11----11----------11----|
D-12----14-12----12-12-12-12----12----12----------------12-|
A----------------------------------------------------------|
D----------------------------------------------------------|

Guitar 2
E----------------10----------------------------------------|
B-------------10----10----------------------10-------------|
G----11----------------11----11----11----11----------------|
D-12----14-12-------------12----12----12-------14-14-14-14-|
A----------------------------------------------------------|
D----------------------------------------------------------|

Outro

Guitar 2
E--------------------------|
B--------------3~~~~~~~~~~-|
G--------------4~~~~~~~~~~-|
D--------------4~~~~~~~~~~-|
A--------------2~~~~~~~~~~-|
D-5~~~-5~-2~~~-------------|

Tab Legend
h  -  hammer-on
p  -  pull-off
/  -  slide up
\  -  slide down
ps/-  pickslide up
ps\-  pickslide down
~  -  let ring
pm.-  palm mute
b  -  bend
r  -  return from bend
*  -  harmonic

Welcome there you go. I would have to say this is the hardest tab, for me, because I am
just starting the tabbing thing. So the main part I had trouble with was the Interlude
2 part, so that probably has a bit of mistakes. Other than that, if there is anything 
just sucks, because this isn't my type of tab but I like a challenge, just say “This
is a bit off”, not “You Suck!” And you know what, for this tab I probably did, but you 
have to rub it in. I'm just helping you, so you can make it better. Email Me! And one 
thing... ROCK OUT!
Добавлено: 24.09.2013
Другие материалы по этой песне:
  • Аккорды и текст

Страница создана 24.09.2013
http://primanota.ru/thursday/love-has-led-us-astray-chords.htm
Привет, Гость.
Предлагаем пройти революционный курс по гитаре.
Подарок от PrimaNota.Ru, забирай!