PrimaNota.ru - самый крупный в мире бесплатный архив песенных текстов, аккордов, табулатур и нот


Thursday - Friends In The Armed Forces - текст песни, таба, бас-таба, видео

Регистрация Запомнить меня
Войти через:  Facebook Google Twitter Vk Yandex Mail.ru

Thursday - Friends In The Armed Forces - текст песни, таба, бас-таба, видео

Печатать
Просмотров: 107
Уроки эстрадного вокала в Санкт-Петербурге
----------------------------------------------------------------
            Friends In The Armed Forces - Thursday
----------------------------------------------------------------
Tabbed by: Kristyn Lee
Email: spot_the_village_loony_836@hotmail.com

Tuning: Drop D

e|--222------222-------|
B|--xxx------xxx-------|
G|--xxx------xxx-------|
D|--444--0~--444--0~---|
A|--222--0~--222--0~---|
E|-------0~-------0~---|

e|---------------------------------------------------|
B|---------------------------------------------------|
G|---------------------------------------------------|x4
D|--44444444-77777777-99999999-000-99\7--------------|
A|--44444444-77777777-99999999-000-99\7--------------|
E|--44444444-77777777-99999999-000-99\7--------------|

verse
e|-----------------------------|
B|-----------------------------|
G|-----------------------------|x2
D|-----------------------------|
A|---444p0-444p0-444p0-444p0---|
E|---444p0-444p0-444p0-444p0---|

e|-----------------------|
B|-----------------------|
G|-----------------------|x2
D|---44444444--77777-----|
A|---22222222--55555-----|
E|-----------------------|

e|-----------------------------|
B|-----------------------------|
G|-----------------------------|x2
D|-----------------------------|
A|---444p0-444p0-444p0-444p0---|
E|---444p0-444p0-444p0-444p0---|

pre-chorus
e|------------------------------------|
B|------------------------------------|
G|------------------------------------|
D|---44444444-77777-44444444--22222---|
A|---22222222-55555-22222222--22222---|
E|----------------------------22222---|

Chorus
e|---------------------------------------------------|
B|---------------------------------------------------|
G|---------------------------------------------------|x4
D|--44444444-77777777-99999999-000-99\7--------------|
A|--44444444-77777777-99999999-000-99\7--------------|
E|--44444444-77777777-99999999-000-99\7--------------|

Repeart verse, listen for the order

bridge
e|---------------------------------------------------|
B|--77777777--55555555--33333333--55555555-----------|
G|--66666666--44444444--22222222--44444444-----------|x4
D|---------------------------------------------------|
A|---------------------------------------------------|
E|---------------------------------------------------|

e|-------------5-------------------------------------|
B|------7-------------7--------9---------------------|
G|--4-7----4-7----4-7----4--7------------------------|x2
D|---------------------------------------------------|
A|---------------------------------------------------|
E|---------------------------------------------------|

Repeat chorus

e|--222-------222--------------|
B|--xxx-------xxx--------------|
G|--xxx-------xxx--------------|x2
D|--444--0~~--444--0~~---------|
A|--222--0~~--222--0~~---------|
E|-------0~~-------0~~---------|

repeat chorus


| /  slide up
| \  slide down
| h  hammer-on
| p  pull-off
| ~  vibrato
| +  harmonic
| x  Mute note
====================================================================
Добавлено: 02.09.2013
Другие материалы по этой песне:
  • Аккорды и текст

Страница создана 15.08.2013
http://primanota.ru/thursday/friends-in-the-armed-forces-chords.htm
Привет, Гость.
Предлагаем пройти революционный курс по гитаре.
Подарок от PrimaNota.Ru, забирай!