PrimaNota.ru - самый крупный в мире бесплатный архив песенных текстов, аккордов, табулатур и нот


Thursday - Autumn Leaves Revisited - текст песни, таба, бас-таба, видео

Регистрация Запомнить меня
Войти через:  Facebook Google Twitter Vk Yandex Mail.ru

Thursday - Autumn Leaves Revisited - текст песни, таба, бас-таба, видео

Печатать
Просмотров: 146
First contribution and first tab for that matter, any advice/corrections most welcome.

Wierd to be tabbing stuff for a change, rather than reading them exclusively.

Thursday - Autumn Leaves Revisited

DROP D

Enter noise

Main riff x 2 Clean

e-------------------------8-8/1010-------------------------------0(0)0------|
b------10--------------------------10-------10-----------------5-5^6v5-5----|
g----------9p0----------------------------------9p0-------------------------|
d-0-0----------10--8/1010--------------8-8-----------10---7-7---------------|
a---------------------------------------------------------------------------|
D---------------------------------------------------------------------------|

Verse

Piano section

(Somewhat these chords)
e-----------------------------|
b-----------------------------|
g-2---------------------------|
d-0----12-----10-----7---5----|
a-0----10------8-----7---5----|
D-0----10------8-----7---5----|  (x2)

The leaves will fall
And so will you
When you do, bury me under them too
Seconds pass; we'll make it through
Eventually we all go home
It won't be long
It won't be long

Main riff x 2 Clean
Guitar 2 is some tremelo picked stuff with a lot of effects on it.. not gonna bother bastardising it.

e-------------------------8-8/1010-------------------------------0(0)0------|
b------10--------------------------10-------10-----------------5-5^6v5-5----|
g----------9p0----------------------------------9p0-------------------------|
d-0-0----------10--8/1010--------------8-8-----------10---7-7---------------|
a---------------------------------------------------------------------------|
D---------------------------------------------------------------------------|

Transition To chorus - Clean

e-0---0---0---0---|
b-x---x---x---x---|
g-5---5---5---5---|
d-7---7---7---7---|
a-----------------|
D-----------------|

Chorus 1

Guitar 1 - Distortion (strummed)
e-----------------------------|
b-----------------------------|
g-2---------------------------|
d-0----12-----10-----7---5----|
a-0----10------8-----7---5----|
D-0----10------8-----7---5----|  (x2)


Guitar 2 (awesome slide part) - distortion
If you just feel like immitating the slide put super vibrato on EVERYTHING

e--------------------------|
b-15-----------------------|
g---14/12/14---------------|
d-------------14//12/14/17-|
a--------------------------|
D--------------------------|    

e--------------------------|
b-15-----------------------|
g---14/12/14---------------|
d-------------14//12/14/17-|
a--------------------------|
D--------------------------|    

e--------------------------|
b-15-----------------------|
g---14/12/14-----------/17-|
d-------------14//12/14/---|
a--------------------------|
D--------------------------|    


e--------------------------|
b-15-----------------------|
g---14/12/14---------------|
d-------------14//12/14/7--|
a--------------------------|
D--------------------------|

Verse 2 - 1 acoustic guitar (just so you know, strum)

e----------------------------|
b----------------------------|
g-2--------------------------|
d-0----12----10-----10--7----|
a-0----10-----8-----8---5----|
D-0----10-----8-----7---5----|

e-----------------------------|
b-----------------------------|
g-2---------------------------|
d-0---12--12--10-----10--7----|
a-0---10--12---8-----8---5----|
D-0---10--10---8-----7---5----|


We walk along the wire tied between horizons
You close your eyes like it's nothing at all
Throughout the rise and fall, everything, everything
Changes, I will be here when you die


Guitar buildup transition clean x a lot... slowly he adds little fills in

Guitar 1
e-----------------------------------------------10--|
b-3-3--5--6--5-5--6--8--6-6--8--10--11-10-8-1010----|
g---------------------------------------------------| Main line
d---------------------------------------------------|
a---------------------------------------------------|
D---------------------------------------------------|

e---3----------5----------6---------------------10--|
b-33-3-5--6--55-5-6--8--66-6-8--10--11-10-8-1010--10|
g---------------------------------------------------| Line with fills later
d---------------------------------------------------|
a---------------------------------------------------|
D---------------------------------------------------|

Guitar 2 does some really light harmonics or clean picking at the start.
Later on it does some tremolo picking with delay and many other effects.
I may try to figure this out later.

It won't be long
It won't be long
Until we find our way home

Chorus 2


Bridge

Then there is a big noise section with plenty off effects and distortion. 
Mainly Piano and bassdriven.

Main riff x 4 Clean

e-------------------------8-8/1010-------------------------------0(0)0------|
b------10--------------------------10-------10-----------------5-5^6v5-5----|
g----------9p0----------------------------------9p0-------------------------|
d-0-0----------10--8/1010--------------8-8-----------10---7-7---------------|
a---------------------------------------------------------------------------|
D---------------------------------------------------------------------------|

Did you hear the trumpets play the day your father died?
Did a violin swell those circles under your eyes?
Did you play the part straight, like a marcher?
Get lost in the beat, thinking and feeling
Did the drums in the streets make the people dance?
Or fall to their knees as the sound?
Knock the leaves from the trees
As they fall from the branch, the look beautiful
As they hung in the air

More piano and some effects driven tremolo.

Spinning around
Did you float in the air?
Spinning around

There must be somewhere that cigarettes burn through the night
And the leaves don't abandon their trees to the light
Where the skies always clear
And the summer never ends

Last Chorus

Won't you take me there?

Outro

Guitar - Distortion Lower volume
e-----------------------------|
b-----------------------------|
g-2---------------------------|
d-0----12-----10-----7---5----|
a-0----10------8-----7---5----|
D-0----10------8-----7---5----|  (x2)


Guitar - acoustic
e------------------------------|
b------------------------------|
g-2--2-------------------------|
d-0--0--12--12--10-10--7---7~--|
a-0--0--10--10---8--8--7---5~--|
D-0--0--10--10---8--8--7---5~--|  

e------------------------------|
b------------------------------|
g-2--2-------------------------|
d-0--0--12--12--10-10-10---7~--|
a-0--0--10--12---8-10--8---5~--|
D-0--0--10--10---8--8--7---5~--|  



The leaves will fall
So will you
When you do, bury me
Under them too
Seconds pass; we'll make it through

Eventually we all are going home 



----------------------

Feedback's appreciated, thanks.
Добавлено: 15.06.2013
Другие материалы по этой песне:
  • Аккорды и текст

Страница создана 26.06.2012
http://primanota.ru/thursday/autumn-leaves-revisited-chords.htm
Привет, Гость.
Предлагаем пройти революционный курс по гитаре.
Подарок от PrimaNota.Ru, забирай!