PrimaNota.ru - самый крупный в мире бесплатный архив песенных текстов, аккордов, табулатур и нот


Thursday - Autobiography of a Nation - аккорды и текст, таба, видео

Регистрация Запомнить меня
Войти через:  Facebook Google Twitter Vk Yandex Mail.ru

Thursday - Autobiography of a Nation - аккорды и текст, таба, видео

Печатать
Просмотров: 94
Авторы музыки: Thursday
Авторы текста: Geoff Rickly
Autobiography of a Nation
Thursday
Thursday - Autobiography Of A Nation
Submitted By: Jason Keisling
EMail: jason@twistoffaithrock.cjb.net
Album: Full Collapse
Additional Info:I mad a few typos the first time i posted this 
(the beginning of the song should rest 8 measures not 4, and at 
the end of the song i accendently put one note on the wrong string)
but this should be right now.
Tuning: d, A, D, G,  

|---------------|------------|---------------|-------------|
|rest-8 measures|------------|------------2h0|-------------|
|---------------|-3h5-55-5---|-3h5-55-5------|-5h3-0h3-5---|
|---------------|----------0-|----------0----|-----------0-|


|---------------|------------|---------------|-------------|
|------------2h0|------------|------------2h0|-------------|
|-3h5-55-5------|-5h3-0h3-5--|-3h5-55-5------|-5h3-0h3-5---|
|----------0----|----------0-|----------0----|-----------0-|


|---------------|      
|------------2h0|
|-3h5-55-5------|
|----------0----|


|---------------|---------------|-------------|-----------|
|---------------|---------------|-------------|----3h2----|
|1-1-1-1-1-1-1-1|1-1-1-1-1-1-1-1|-3h5--55-5---|-55-----5--|4x
|---------------|---------------|-----------0-|-----------|

rest 4 measures....

|---------------|-------------|---------------|---------------
|---------------|----33-3-----|---------------|---------------
|1-1-1-1-1-1-1-1|1-1-----3-3-3|5-5-5-5-5-5-5-5|5-5-5-5-5-5-5-5
|---------------|-------------|---------------|---------------3x|---------------|-------------|---------------|---------------
|---------------|----33-3-----|---------------|---------------
|1-1-1-1-1-1-1-1|1-1-----3-3-3|5-5-x--5-5-5-x-|5-5-5-x-5-5-5-x
|---------------|-------------|---------------|---------------


|---------------|
|---------------|
|-5-5-5-x-5-5-5-|
|---------------|


|---------------|-------------|---------------|---------------
|---------------|----33-3-----|---------------|---------------
|1-1-1-1-1-1-1-1|1-1-----3-3-3|5-5-5-5-5-5-5-5|5-5-5-5-5-5-5-5
|---------------|-------------|---------------|---------------3x

|---------------|-------------|---------------|---------------
|---------------|----33-3-----|---------------|---------------
|1-1-1-1-1-1-1-1|1-1-----3-3-3|5-5-x--5-5-5-x-|5-5-5-x-5-5-5-x
|---------------|-------------|---------------|---------------


|---------------|
|---------------|
|-5-5-5-x-5-5-5-|
|---------------|

|-------------|
|-------------|
|-------------|4x
|-0-0-0-0-0-0-|


|--------|-------------|
|--------|-------------|
|--------|-3h5-5-5-5-5-|4x
|-8--8h5-|-------------|


|---------|---------|---------|---------|
|---------|---------|---------|---------|
|-8-8-8-8-|---------|---------|-1-1-1-1-|4x
|---------|-7-7-7-7-|-5-5-5-5-|---------|


|-----------|
|-----------|
|-----1---1-|4x
|-0-0---0---|
Добавлено: 22.02.2012
Другие материалы по этой песне:

Страница создана 22.02.2012
http://primanota.ru/thursday/autobiography-of-a-nation-chords.htm
Привет, Гость.
Предлагаем пройти революционный курс по гитаре.
Подарок от PrimaNota.Ru, забирай!