PrimaNota.ru - самый крупный в мире бесплатный архив песенных текстов, аккордов, табулатур и нот


Thursday - A0001 - текст песни, таба, видео

Регистрация Запомнить меня
Войти через:  Facebook Google Twitter Vk Yandex Mail.ru

Thursday - A0001 - текст песни, таба, видео

Печатать
Просмотров: 114
-------------------------------------------------------------------------------
			     Thursday - A0001
-------------------------------------------------------------------------------

Tabbed by:  Greg Wiseman (gdw6813@yahoo.com)

Drop D Tuning (DADGBe)
(I guess it could be in standard EADGBe if you wanted since the top string isn't used.
I just put it this way since most Thursday songs are in Drop D.)

* = Let ring
p = Pull-off


(Fades in, this is the first part you can hear.)

=Guitar 1=
e |---------------------------15p12------13p12--------------|
B |-----15p12------13p12-------------12---------13p12-13p12-|
G |-12---------12---------12--------------------------------|
D |---------------------------------------------------------|
A |---------------------------------------------------------|
D |---------------------------------------------------------|

=Guitar 2=
e|---------------------------------------------------------|
B|---------------------------------------------------------|
G|-77--555555-----444444-----222222222222------------------|
D|-99--777777-----555555-----444444444444------------------|
A|---------------------------------------------------------|
D|---------------------------------------------------------|



=Guitar 1=
e|-------------------------------------------------------|
B|------------------------------------------------12-----|
G|----------12-------12-------12--------14p12-12------12-|
D|-------------------------------------------------------|
A|-------------------------------------------------------|
D|-------------------------------------------------------|

=Guitar 2=
e|-------------------------------------------------------|
B|-------------------------------------------------------|
G|--9--9--9--9--9--9--9--9--9--9--9--9--777777777777-----|
D|-10-10-10-10-10-10-10-10-10-10-10-10--999999999999-----|
A|-------------------------------------------------------|
D|-------------------------------------------------------|



=Guitar 1=
e|-----------------------15p12------13p12--------------|
B|-15p12------13p12-------------12--13p12--13p12-13p12-|
G|--------12---------12--------------------------------|
D|-----------------------------------------------------|
A|-----------------------------------------------------|
D|-----------------------------------------------------|

=Guitar 2=
e|-----------------------------------------------------|
B|-----------------------------------------------------|
G|-555555-----444444-----222222222222------------------|
D|-777777-----555555-----444444444444------------------|
A|-----------------------------------------------------|
D|-----------------------------------------------------|



=Guitar 1=
e|---------------------------------------------------------------------------|
B|----------------------------------------------12------15p12------13p12-----|
G|----------12-------12-------12--------14--12------12---------12---------12-|
D|---------------------------------------------------------------------------|
A|---------------------------------------------------------------------------|
D|---------------------------------------------------------------------------|

=Guitar 2=
e|---------------------------------------------------------------------------|
B|---------------------------------------------------------------------------|
G|--9--9--9--9--9--9--9--9--9--9--9--9--777777777777----555555-----444444----|
D|-10-10-10-10-10-10-10-10-10-10-10-10--999999999999----777777-----555555----|
A|---------------------------------------------------------------------------|
D|---------------------------------------------------------------------------|



=Guitar 1=
e|-15p12*-|
B|-12****-|
G|--------|
D|--------|
A|--------|
D|--------|

=Guitar 2=
e|--------|
B|--------|
G|-2*-----|
D|-4*-----|
A|--------|
D|--------|



Lyrics
------

"We'll all look the same someday, and even now the robot starts to think. I wonder what
it dreams." Notes:  Consult actual song for rhythm/timing/strumming pattern.  Guitar 2
is very faint and was hard to distinguish.  If you know something better for this part,
feel free to tell me.  Email me if you have any questions/comments (gdw6813@yahoo.com).
Добавлено: 20.06.2013
Другие материалы по этой песне:
  • Аккорды и текст

Страница создана 08.03.2012
http://primanota.ru/thursday/a0001-chords.htm
Привет, Гость.
Предлагаем пройти революционный курс по гитаре.
Подарок от PrimaNota.Ru, забирай!