PrimaNota.ru - самый крупный в мире бесплатный архив песенных текстов, аккордов, табулатур и нот


Thundercat - Tron Song - бас-таба, видео

Регистрация Запомнить меня
Войти через:  Facebook Google Twitter Vk Yandex Mail.ru

Thundercat - Tron Song - бас-таба, видео

Печатать
Просмотров: 88
Уроки эстрадного вокала в Санкт-Петербурге
Авторы: Steven Ellison, Stephen Bruner

-------------------------------------------------------------------------------
                 Tron Song (Intro Chords) - Thundercat
-------------------------------------------------------------------------------
All of the chords below are arpeggiated
Listen to the song for the plucking pattern

Tuning: 5 string BEADG


First part: (The number after the chord represents how many times its repeated)

G|---20------|--17-------|--18-------||--20-------|---------|--17-------|--18--------|
D|---18------|--15-------|--16-------||--18-------|---------|--15-------|--16--------|
A|---19---4X-|--16---2X--|--17---2X--||--19---3X--|---------|--16---2X--|--17---2X---|
E|-----------|-----------|-----------||-----------|--14h16--|-----------|------------|
B|---17------|--14-------|--15-------||--17-------|---------|--14-------|--15--------|


Second Part: (first 3 arpeggios are played once)
Lyric: Don't you know you rock my world?

G|---20---17---10---|--9--------||
D|---18---15---10---|--9--------||
A|---19---16---13---|--12---3X--||
E|---17---14---11---|--10-------||
B|------------------|-----------||


Third Part: (first 4 arpeggios are played twice)
Lyric: Don't you ever leave me turbo tron

G|--14---14---17---17--|--14------|--14-------||
D|--17---12---15---15--|--17------|--13-------||
A|--15---13---16---16--|--15--4X--|--12--2X---||
E|--13-------------14--|--13------|--13-------||
B|-------11---14-------|----------|-----------||


Fourth Part: (All arpeggios here are played twice)
Lyric: Don't ever wonder where I'm going

G|------------14---12---12---10-----||
D|------------12---10---10----8-----||
A|-------12---13---12---11----9-----||
E|-13-15-----------------9----------||
B|------------11---10---------7-----||

Final Part: (Both arpeggios are played 4 times)

G|--21------21-----|
D|--19------18-----|
A|--20------19-----|
E|-----------------|
B|--18------17-----|

Добавлено: 21.06.2015
Вам также может быть интересно:
Другие материалы по этой песне:
  • Аккорды и текст

Страница создана 21.06.2015
http://primanota.ru/thundercat/tron-song-chords.htm
Привет, Гость.
Предлагаем пройти революционный курс по гитаре.
Подарок от PrimaNota.Ru, забирай!