PrimaNota.ru - самый крупный в мире бесплатный архив песенных текстов, аккордов, табулатур и нот


Thunder - Wonder Days - таба, видео

Регистрация Запомнить меня
Войти через:  Facebook Google Twitter Vk Yandex Mail.ru

Thunder - Wonder Days - таба, видео

Печатать
Просмотров: 126
Уроки эстрадного вокала в Санкт-Петербурге
Авторы музыки: Luke Morley
Авторы текста: Luke Morley
-------------------------------------------------------------------------------
                             Wonder Days - Thunder
-------------------------------------------------------------------------------
Tabbed by:calum_mc
E-mail:calum_chambers@hotmail.com

Tuning: Drop D DADGBe
       
NOTE: CORRECTION- I previously thought that the solo was played using a slide as this was how it
                  was played live however on the studio recording he was actually using wah
                  pedal which brought each note up an octave. I have tabed these parts an octave
                  down from the origional recording to get it sounding as close as possible to it

INTRO
e|-------x--x-------x--x----------|
B|-------3--3-------3--3----------|
G|-------2--2-------2--2---0------| X5
D|-2p0-0-0--0-2p0-0-0--0-2---2p0--|
A|--------------------------------|
D|--------------------------------|

VERSE 1 
e|-------x--x-------x--x---------x----------------------------|
B|-------3--3-------3--3---------3----------------------------|
G|-------2--2-------2--2---0-----2----------------------------| X4
D|-2p0-0-0--0-2p0-0-0--0-2---2p0-0----------------------------|
A|------------------------------------------------------------|
D|------------------------------------------------------------|

Guitar 1 (Distorted)
e|---------------------------------------------------------------------------|
B|------------------------------------------------------------------2h3p2----|
G|--------------------------------------------------------------2---------2--|
D|-5---------------3-5-7--3--5----------------------2p0---3-2----------------|
A|-5---------------3-5-7--3--5----------------0-1-0-----0-----0---0----------|
D|-5---------------3-5-7--1--5-----------------------------------------------|

Guitar 2 (Clean)
e|---------------------------------------------------------------------------|
B|-8---8----8----8-6-8-9--6--8---8----8----8------------------------2h3p2----|
G|-7--7--7-7--7-7--5-7-8--5--7--7--7-7--7-7---------------------2---------2--|
D|-5-5----5----5---3-5-6--3--5-5----5----5----------2p0---3-2----------------|
A|--------------------------------------------0-1-0-----0-----0---0----------|
D|---------------------------------------------------------------------------|

VERSE 2
e|-------x--x-------x--x---------x----------------------------|
B|-------3--3-------3--3---------3----------------------------|
G|-------2--2-------2--2---0-----2----------------------------| X4
D|-2p0-0-0--0-2p0-0-0--0-2---2p0-0----------------------------|
A|------------------------------------------------------------|
D|------------------------------------------------------------|

Guitar 1 (Distorted)
e|-------------------------------------------------------------------------------------------|
B|------------------------------------------------------------------2h3p2--------------------|
G|--------------------------------------------------------------2---------2-3-2-----------2--|
D|-5---------------3-5-7--3--5----------------------2p0---3-2-------------------3-2-0-----2--|
A|-5---------------3-5-7--3--5----------------0-1-0-----0-----0---0-------------------3-1-0--|
D|-5---------------3-5-7--3--5---------------------------------------------------------------|

Guitar 2 (Clean)
e|-------------------------------------------------------------------------------------------|
B|-8---8----8----8-6-8-9--6--8---8----8----8------------------------2h3p2--------------------|
G|-7--7--7-7--7-7--5-7-8--5--7--7--7-7--7-7---------------------2---------2-3-2-----------2--|
D|-5-5----5----5---3-5-6--3--5-5----5----5----------2p0---3-2-------------------3-2-0-----2--|
A|--------------------------------------------0-1-0-----0-----0---0-------------------3-1-0--|
D|-------------------------------------------------------------------------------------------|

CHORUS
Guitar 1 (distorted)
e|---------------------------------------------------------------------------|
B|---------------------------------------------------------------------------|
G|-7--------3-----------------5--------7--------3----------------------2-----|
D|-7--------3--------3--------5--------7--------3--------3--------1----2-----|
A|-5--------1--------3--------3--------5--------1--------3--------1----0-----|
D|-------------------3-----------------------------------3--------1----------|

Guitar 2 (clean) 
e|---------------------------------------------------------------------------|
B|-----5--------1-----------------3--------5--------1------------------------|
G|---7---7----3---3------5--5---5---5----7---7----3---3------5--5--------2---|
D|--7-7-7-7--3-3-3-3---3---3---5-5-5-5--7-7-7-7--3-3-3-3---3---3----1---2-2--|
A|-5--------1---------3-3-3---3--------5--------1---------3-3-3----1-1-0-----|
D|-------------------3-----------------------------------3--------1----------|

Then
e|-------x--x-------x--x---------x----------------------------|
B|-------3--3-------3--3---------3----------------------------|
G|-------2--2-------2--2---0-----2----------------------------| X4
D|-2p0-0-0--0-2p0-0-0--0-2---2p0-0----------------------------|
A|------------------------------------------------------------|
D|------------------------------------------------------------|

GUITAR SOLO (Guitar 1) 
e|--------/15-15--------/15-15---/15-/13-/10-/8--------/15-15--------/15-15---/15-/13-/10-/8--|
B|--------------------------------------------------------------------------------------------|
G|-/10-10--------/10-10-------------------------/10-10--------/10-10--------------------------|
D|--------------------------------------------------------------------------------------------|
A|--------------------------------------------------------------------------------------------|
D|--------------------------------------------------------------------------------------------|

e|------------------8-10b12r10p8-10-8--------------------------------------------------15b17~~|
B|----8-10-10b13-10-------------------10~~---8--------------------13h15p13----13h15p13--------|
G|-/9-------------------------------------/9---9-8-7-5b6-5~~13-14----------14-----------------|
D|--------------------------------------------------------------------------------------------|
A|--------------------------------------------------------------------------------------------|
D|--------------------------------------------------------------------------------------------|

e|-15pb17-15pb17r15-12h15p12------------------------------------------------------------------|
B|---------------------------15b17-15pb17r15-13h15----13--------------------------------------|
G|-------------------------------------------------14----12-14--------------------------------|
D|-------------------------------------------------------------12~~~~~~~~~~~~-----------------|
A|--------------------------------------------------------------------------------------------|
D|--------------------------------------------------------------------------------------------|

e|----------------------------------------10~~~---------------10h12h13~~~13pb15r13-10h13p10~--|
B|-10h11p10----------------------10h11-13-----------------------------------------------------|
G|----------12-10-12~~~-----------------------------------------------------------------------|
D|--------------------------------------------------------------------------------------------|
A|--------------------------------------------------------------------------------------------|
D|--------------------------------------------------------------------------------------------|

e|--------------------------------------------------------------------------------------------|
B|-15-----------------------------------------------------------------------------------------|
G|----12b13r12-----12----12\------------------10h12p10-------10-12-14-15p14~~~14-17b19--------|
D|--------------15----15-------------------------------12/14----------------------------------|
A|--------------------------------------------------------------------------------------------|
D|--------------------------------------------------------------------------------------------|

e|-12b13r12-10-------------------13-----------------------------------------------------------|
B|-------------13~~~----------------10h13p10----10---------------------13b15~~~---------------|
G|-------------------------------------------12----12b13r12-10~~~-----------------------------|
D|--------------------------------------------------------------------------------------------|
A|--------------------------------------------------------------------------------------------|
D|--------------------------------------------------------------------------------------------|

SOLO BACKING (Guitar 2)
e|-----------------------------------------------------------------------------------------------|
B|-----------------------------------------------------------------------------------------------|
G|-----------------------------------------------------------------------------------------------|
D|-5----------------------------------------------5----------------------------------------------|
A|-5----------------------------------------------5----------------------------------------------|
D|-5--------------5-5-5--5-5-5--5-5-5--5-5-5--5-5-5--------------5-5-5--5-5-5--5-5-5--5-5-5--5-5-|

e|-----------------------------------------------------------------------------------------------|
B|-----------------------------------------------------------------------------------------------|
G|----------------------------------------------------------------------------------5--6--7------|
D|-7----------------------------------------------7----------------------------------------------|
A|-7----------------------------------------------7---------------------------------3--4--5------|
D|-7--------------7-7-7--7-7-7--7-7-7--7-7-7--7-7-7--------------7-7-7--7-7-7--7-7---------------|

(8 BAR BREAK)

e|-------0-----------0-----------0-----------0------|
B|-----3---3-------3---3-------3---3-------3---3----|
G|---2-------2---2-------2---2-------2---2-------2--| X2
D|-0------------------------------------------------|
A|-------------3-----------2-----------1------------|
D|--------------------------------------------------|

(VERY QUIET)
e|--------------------------------------------------------------------------------|
B|--------------------------------------------------------------------------------|
G|---------------7---------------------------5-7---------------12-----------------|
D|-7-------------7-----------------7---------5-7---------------12-----------------|
A|-7-------------5-5-5-5-5-5-5-5-5-7---------3-5-5-5-5-5-5-5-5-10-10-10-10-10-10--|
D|-7-7-7-7-7-7-7-------------------7-7-7-7-7--------------------------------------|

e|---------------------------------------------------------------|
B|---------------------------------------------------------------|
G|-12\7-------------7\3-------7-8--------------------------------|
D|-12\7-------------7\3-------7-8--------------------------------|
A|-10\5-5-5-5-5-5-5-5\1-1-1-1-5-6-6-6-6-6-6-6-6-6-6-6-6-6-6-6-6--|
D|---------------------------------------------------------------|

THEN (GUITAR 1)
e|-------x--x-------x--x----------|
B|-------3--3-------3--3----------|
G|-------2--2-------2--2---0------| X3
D|-2p0-0-0--0-2p0-0-0--0-2---2p0--|
A|--------------------------------|
D|--------------------------------|

Guitar 1 (Distorted)
e|-------------------------------------------------------------------------------------------|
B|------------------------------------------------------------------2h3p2--------------------|
G|--------------------------------------------------------------2---------2-3-2-----------2--|
D|-5---------------3-5-7--3--5----------------------2p0---3-2-------------------3-2-0-----2--|
A|-5---------------3-5-7--3--5----------------0-1-0-----0-----0---0-------------------3-1-0--|
D|-5---------------3-5-7--3--5---------------------------------------------------------------|

Guitar 2 (Clean)
e|-------------------------------------------------------------------------------------------|
B|-8---8----8----8-6-8-9--6--8---8----8----8------------------------2h3p2--------------------|
G|-7--7--7-7--7-7--5-7-8--5--7--7--7-7--7-7---------------------2---------2-3-2-----------2--|
D|-5-5----5----5---3-5-6--3--5-5----5----5----------2p0---3-2-------------------3-2-0-----2--|
A|--------------------------------------------0-1-0-----0-----0---0-------------------3-1-0--|
D|-------------------------------------------------------------------------------------------|

CHORUS 3 

CHORUS
Guitar 1 (distorted)
e|---------------------------------------------------------------------------|
B|---------------------------------------------------------------------------|
G|-7--------3-----------------5--------7--------3-----------------5----------|
D|-7--------3--------3--------5--------7--------3--------3--------5----------|
A|-5--------1--------3--------3--------5--------1--------3--------3----------|
D|-------------------3-----------------------------------3-------------------|

Guitar 2 (clean) 
e|---------------------------------------------------------------------------|
B|-----5--------1-----------------3--------5--------1-----------------3------|
G|---7---7----3---3------5--5---5---5----7---7----3---3------5--5---5---5----|
D|--7-7-7-7--3-3-3-3---3---3---5-5-5-5--7-7-7-7--3-3-3-3---3---3---5-5-5-5---|
A|-5--------1---------3-3-3---3--------5--------1---------3-3-3---3----------|
D|-------------------3-----------------------------------3-------------------|

Guitar 1 (distorted)
e|---------------------------------------------------------------------------|
B|---------------------------------------------------------------------------|
G|-7--------3-----------------5--------7--------3----------------------2-----|
D|-7--------3--------3--------5--------7--------3--------3--------1----2-----|
A|-5--------1--------3--------3--------5--------1--------3--------1----0-----|
D|-------------------3-----------------------------------3--------1----------|

Guitar 2 (clean) 
e|---------------------------------------------------------------------------|
B|-----5--------1-----------------3--------5--------1------------------------|
G|---7---7----3---3------5--5---5---5----7---7----3---3------5--5--------2---|
D|--7-7-7-7--3-3-3-3---3---3---5-5-5-5--7-7-7-7--3-3-3-3---3---3----1---2-2--|
A|-5--------1---------3-3-3---3--------5--------1---------3-3-3----1-1-0-----|
D|-------------------3-----------------------------------3--------1----------|

e|-------x--x-------x--x---------x--x-x--x-x--x-x--x-x--x-x-x--|
B|-------3--3-------3--3---------3--3-3--3-3--3-3--3-3--3-3-3--|
G|-------2--2-------2--2---0-----2--2-2--2-2--2-2--2-2--2-2-2--| 
D|-2p0-0-0--0-2p0-0-0--0-2---2p0-0--0-0--0-0--0-0--0-0--0-0-0--|
A|-------------------------------------------------------------|
D|-------------------------------------------------------------|



************************************

| /   slide up
| \   slide down
| h   hammer-on
| p   pull-off
| ~   vibrato
| +   harmonic
| x   Mute note
| b   Bend
| pb  Pre-bend
| br  Bend release
| pbr Pre-bend release
| brb Bend release bend

************************************
Добавлено: 06.12.2015
Вам также может быть интересно:
Другие материалы по этой песне:
  • Аккорды и текст

Страница создана 06.12.2015
http://primanota.ru/thunder/wonder-days-chords.htm
Привет, Гость.
Предлагаем пройти революционный курс по гитаре.
Подарок от PrimaNota.Ru, забирай!