PrimaNota.ru - самый крупный в мире бесплатный архив песенных текстов, аккордов, табулатур и нот


Thunder - The Thing I Want - таба, видео

Регистрация Запомнить меня
Войти через:  Facebook Google Twitter Vk Yandex Mail.ru

Thunder - The Thing I Want - таба, видео

Печатать
Просмотров: 101
Уроки эстрадного вокала в Санкт-Петербурге
Авторы музыки: Luke Morley
Авторы текста: Luke Morley
-------------------------------------------------------------------------------
                           The Thing I Want - Thunder
-------------------------------------------------------------------------------
Tabbed by: calum_mc
E-mail: calum_chambers@hotmail.com

Tuning: Standard EADGBe

The Introduction and the Bridge to this songs don't quite sound right when 
played with the quitar alone as it needs the bass to sound like the 
origional recording however if you are playing along to the song it should 
sounds just fine.

INTRO
e|-----------------------------------------------------------------------|
B|-----------------------------------------------------------------------|
G|-9/11------9------9/11------9------9/11------9------9/11------9--------|
D|-9/11------9------9/11------9------9/11------9------9/11------9--------|
A|-----------------------------------------------------------------------|
E|-----------------------------------------------------------------------|

e|----------------------------------------------------------|
B|-4--4-5--4------------------------------------------------|
G|-x--x-x--x-------4--4-5--4------1--1-2--1------1--1-2--1--|
D|-4--4-4--4-------5--5-5--5------2--2-2--2------2--2-2--2--|
A|-2--2-2--2-------5--5-5--5------2--2-2--2------2--2-2--2--|
E|-----------------3--3-3--3------0--0-0--0------0--0-0--0--|

e|------------------------------------------------------------|
B|-4--4-5--4--------------------------------------------------|
G|-x--x-x--x-------4--4-5--4------1--1-2--1------1--1-2-2--1--|
D|-4--4-4--4-------5--5-5--5------2--2-2--2------2--2-2-2--2--|
A|-2--2-2--2-------5--5-5--5------2--2-2--2------2--2-2-2--2--|
E|-----------------3--3-3--3------0--0-0--0------0--0-0-0--0--|

VERSE (Played slightly muted)
e|----------------------------------------------------------|
B|-4--4-5--4------------------------------------------------|
G|-x--x-x--x-------4--4-5--4------1--1-2--1------1--1-2--1--|
D|-4--4-4--4-------5--5-5--5------2--2-2--2------2--2-2--2--|
A|-2--2-2--2-------5--5-5--5------2--2-2--2------2--2-2--2--|
E|-----------------3--3-3--3------0--0-0--0------0--0-0--0--|

e|------------------------------------------------------------|
B|-4--4-5--4--------------------------------------------------|
G|-x--x-x--x-------4--4-5--4------1--1-2--1------1--1-2-2--1--| X2 (but on final time repeat
D|-4--4-4--4-------5--5-5--5------2--2-2--2------2--2-2-2--2--|     last bar)
A|-2--2-2--2-------5--5-5--5------2--2-2--2------2--2-2-2--2--|
E|-----------------3--3-3--3------0--0-0--0------0--0-0-0--0--|

CHORUS
e|---------------------------------|
B|---------------------------------|
G|-4---4-x-x-------7---7-x-x-------| X4
D|-4---4-x-x-5--5--7---7-x-x-7--7--|
A|-2---2-x-x-5--5--5---5-x-x-7--7--|
E|-----------3--3------------5--5--|

'VERSE 2' SAME AS 'VERSE 1'

CHORUS
e|---------------------------------|
B|---------------------------------|
G|-4---4-x-x-------7---7-x-x-------| X5
D|-4---4-x-x-5--5--7---7-x-x-7--7--|
A|-2---2-x-x-5--5--5---5-x-x-7--7--|
E|-----------3--3------------5--5--|

BRIDGE
e|-------------------------------------------2---------2-----2-------2-------2-------------------|
B|---------------------------------------------2-----2-------------2-------2---------------------|
G|-11-------9----8----9---------9-----9--4b6-----4b6-----4b6---4b6-----4b6---------9----7-7-7-7--|
D|-11-------9----9----9---------9-----9--------------------------------------------9----7-7-7-7--|
A|--------------------7---------7-----7--------------------------------------------7----5-5-5-5--|
E|---------------------------0-----0-------------------------------------------0-X---------------|

GUITAR SOLO
e|----------------------------------------------------------------------------|
B|-10h12-10h12-12p10----10-----------------------------------------10---------|
G|-------------------11----11-11-11b12r11---------9-9b11-9~~7-9b11----9b11----|
D|----------------------------------------12-9-12--------------------------9--|
A|----------------------------------------------------------------------------|
E|----------------------------------------------------------------------------|

e|-------------------------------------------------------------------------|
B|-12p0-12p0-12p0-12p10p0----10p0-12p0-10p0-12p0-14p0-12p0-14p0-15p0-14p0--|
G|------------------------11-----------------------------------------------|
D|-------------------------------------------------------------------------|
A|-------------------------------------------------------------------------|
E|-------------------------------------------------------------------------|

e|-------17-----------------------------------17b19~~--|
B|-17b19----17pb19r17p15----15-17-17b19-17~~~~---------|
G|-----------------------16----------------------------|
D|-----------------------------------------------------|
A|-----------------------------------------------------|
E|-----------------------------------------------------|

SOLO BACKING
e|------------------------------------------------------------|
B|-4--4-5--4--------------------------------------------------|
G|-x--x-x--x-------4--4-5--4------1--1-2--1------1--1-2-2--1--| X2 
D|-4--4-4--4-------5--5-5--5------2--2-2--2------2--2-2-2--2--| 
A|-2--2-2--2-------5--5-5--5------2--2-2--2------2--2-2-2--2--|
E|-----------------3--3-3--3------0--0-0--0------0--0-0-0--0--|

'VERSE 3' Same as 'VERSE 1'

FINAL CHORUS
GUITAR 1
e|---------------------------------|
B|---------------------------------|
G|-4---4-x-x-------7---7-x-x-------| X7
D|-4---4-x-x-5--5--7---7-x-x-7--7--|
A|-2---2-x-x-5--5--5---5-x-x-7--7--|
E|-----------3--3------------5--5--|

GUITAR 2 (Comes in after 4X through)
e|-------10b11---------------------------------------------12b14r12p10--------|
B|-10h12-----------------9b10r9--7---9---------------------------------12-12--|
G|-----------------------9b10r9--7---9---7-9-9b10-9---------------------------|
D|---------------------------------9---9--------------------------------------|
A|----------------------------------------------------------------------------|
E|----------------------------------------------------------------------------|

GUITARS 1+2
e|-------|
B|-------|
G|-9b11--|
D|-9b11--|
A|-------|
E|-------|

e|-----------------------------------------------------------------------|
B|-----------------------------------------------------------------------|
G|-9/11------9------9/11------9------9/11------9------9/11------9--------|
D|-9/11------9------9/11------9------9/11------9------9/11------9----9\--|
A|-------------------------------------------------------------------9\--|
E|-------------------------------------------------------------------7\--|


************************************

| /   slide up
| \   slide down
| h   hammer-on
| p   pull-off
| ~   vibrato
| +   harmonic
| x   Mute note
| b   Bend
| pb  Pre-bend
| br  Bend release
| pbr Pre-bend release
| brb Bend release bend

************************************
Добавлено: 06.12.2015
Другие материалы по этой песне:
  • Аккорды и текст

Страница создана 06.12.2015
http://primanota.ru/thunder/thing-i-want-chords.htm
Привет, Гость.
Предлагаем пройти революционный курс по гитаре.
Подарок от PrimaNota.Ru, забирай!