PrimaNota.ru - самый крупный в мире бесплатный архив песенных текстов, аккордов, табулатур и нот


Thrush Hermit - French Inhale - таба, видео

Регистрация Запомнить меня
Войти через:  Facebook Google Twitter Vk Yandex Mail.ru

Thrush Hermit - French Inhale - таба, видео

Печатать
Просмотров: 18
Song: French Inhale
Band: Thrush Hermit
Album: Smart Bomb EP
Label: Murderecords
Tabbed By: ultimatelefty

This may not be a perfect tab of this song, but I think it's a pretty good interpretation. I love this
band and really wanted to tab this song, it's the song that really got me into Thrush Hermit, and it's
a fun one to play. For those of you out there who also love Thrush Hermit, please rate, offer any correction
help if necessary, and enjoy!


Intro/Verse:

e|-----------------------------------------------------|
B|------------------------------------6--6-6-6-6-6-6-6-|
G|---------------------------7-x-7777-7--7-7-7-7-7-7-7-|
D|-7-7-7777-7--7-7-7-7-7-7-7-7-x-7777-7--7-7-7-7-7-7-7-|
A|-7-7-7777-8--8-8-8-8-8-8-8-5-x-5555-5--5-5-5-5-5-5-5-|
E|-5-5-5555-5--5-5-5-5-5-5-5---------------------------|

Lead Part After Intro is played 2x:

e|-------------------------------------------------------------------|
B|---------5-5-------------5-5-------------5-5-----5h6-6-6-6-6-6-6-6-|
G|-6-6-------------6-6-------------6-6-------------------------------|
D|-----7-7-----7-7-----7-7-----7-7-----7-7-----7-7-------------------|
A|-------------------------------------------------------------------|
E|-------------------------------------------------------------------|

e|------------------------------------------------------|
B|---------5-5-------------5-5-----7-7-5-5--------------|
G|-6-6-------------6-6---------------------7-7-6-6-7----|
D|-----7-7-----7-7-----7-7-----7-7----------------------|
A|------------------------------------------------------|
E|------------------------------------------------------|

Lead Part After First Verse is played 2x:

e|---------------|
B|---------5b7r5-|
G|-6-6-----------|
D|-----7-7-------|
A|---------------|
E|---------------|x3

e|-------------------|
B|---------5b7r5b7r5-|
G|-6-6---------------|
D|-----7-7-----------|
A|-------------------|
E|-------------------|

e|------------------------------------------------------|
B|---------5-5-------------5-5-----7-7-5-5--------------|
G|-6-6-------------6-6---------------------7-7-6-6-7----|
D|-----7-7-----7-7-----7-7-----7-7----------------------|
A|------------------------------------------------------|
E|------------------------------------------------------|

Chorus:

e|-----------------------------|
B|-----------------------------|
G|-4--x--4-4--x--4-4-----------|
D|-4--x--4-4--x--4-4-3-3---x-x-|
A|-2--x--2-2--x--2-2-3-3---x-x-|
E|-------------------1-1---x-x-|x4

Post-1st Chorus:

e|-------------------------------------------------------------------------------------------------|
B|---------5-5-------------5-5-------------5-5-------------5-5-------------5-5-------------5-5-----|
G|-6-6-------------6-6-------------6-6-------------6-6-------------6-6-------------6-6-------------|
D|-----7-7-----7-7-----7-7-----7-7-----7-7-----7-7-----7-7-----7-7-----7-7-----7-7-----7-7-----7-7-|
A|-------------------------------------------------------------------------------------------------|
E|-------------------------------------------------------------------------------------------------|

e|---------------------|
B|-7-7-5-5-------------|
G|---------7-7-6-6-7---|
D|---------------------|
A|---------------------|
E|---------------------|

Lead as soon as 2nd Verse Starts:

e|------------------0----------------0----------------0-------------|
B|-2-----------0h2--------------0h2--------------0h2----------------|
G|------------------------------------------------------------------|
D|------------------------------------------------------------------|
A|------------------------------------------------------------------|
E|------------------------------------------------------------------|

e|-------------------|
B|---------5b7r5b7r5-|
G|-6-6---------------|
D|-----7-7-----------|
A|-------------------|
E|-------------------|x4

e|------------------------------------------------------|
B|---------5-5-------------5-5-----7-7-5-5--------------|
G|-6-6-------------6-6---------------------7-7-6-6-7----|
D|-----7-7-----7-7-----7-7-----7-7----------------------|
A|------------------------------------------------------|
E|------------------------------------------------------|

Solo:

e|-------------------------------------------------------------------------------|
B|---------5b7r5(pretty much just do a whole bunch of bend/release for a while)--|
G|-6-6---------------------------------------------------------------------------|
D|-----7-7-----------------------------------------------------------------------|
A|-------------------------------------------------------------------------------|
E|-------------------------------------------------------------------------------|

e|-------------12-12-------|
B|-14-14-------------------|
G|-------14-14-------14-14-|
D|-------------------------|
A|-------------------------|
E|-------------------------|x6

e|-------------------------|
B|-------------------------|
G|-13\11-11--11\9---9/10---|
D|-------------------------|
A|-------------------------|
E|-------------------------|


Now the order that this is played in is (keep in mind that the Intro/Verse part can be played anytime
during the song besides the Chorus):

Intro/Verse x2
Lead During Intro
Verse x2
Lead Part During First Verse
Chorus x4
Post-1st Chorus
Lead as soon as 2nd Verse Starts
Chorus x4
Solo
Chorus x8

And there you have it! Hopefully that makes sense, and comes out to a decent cover version of this way-too
underrated song!

Lyrics:

Look at the first time you got drunk 
Let's get together and reminisce 
We're smoking out on the back deck 
and it can't get better than this

And you're looking wicked and so am I
Let's get together and reminisce
No matter how hard we might try
Let's french inhale, let's french kiss

French inhale

Take a last lap around the bar
Take your time taking over me
Take it easy

The ground turns to yellow, it turns to red
so take a deep breath and reminisce
One false move, we'll both be dead
Let's french inhale, let's french kiss

And you gotta gimme that kiss
So french inhale
You gotta inhale 
Добавлено: 21.06.2016
Другие материалы по этой песне:
  • Аккорды и текст

Страница создана 21.06.2016
http://primanota.ru/thrush-hermit/french-inhale-chords.htm
Привет, Гость.
Предлагаем пройти революционный курс по гитаре.
Подарок от PrimaNota.Ru, забирай!