PrimaNota.ru - самый крупный в мире бесплатный архив песенных текстов, аккордов, табулатур и нот


Thrown To The Sun - Ravenous Sun - таба, видео

Регистрация Запомнить меня
Войти через:  Facebook Google Twitter Vk Yandex Mail.ru

Thrown To The Sun - Ravenous Sun - таба, видео

Печатать
Просмотров: 104
Уроки эстрадного вокала в Санкт-Петербурге
                                 Ravenous Sun


                                Thrown to the Sun

                           Ahmet Saracoglu/Bahadir Sarp

                          http://www.throwntothesun.com/



        PM PM PM                          PM PM PM PM
     |-3|  |-3|  |--3--|  3               |-3|  |-3|  |--3--|  |--3--|  3
     E  S  S  E  Q     E  H.              E  S  S  E  Q     E  Q     E  Q.
D||------------------------------------|---------------------------------------|
A||------------------------------------|---------------------------------------|
F||------------------------------------|---------------------------------------|
C||--------------5S----6--6------------|--------------5S----6--5S----4--2------|
G||--------------7S----8--8------------|--------------7S----8--7S----6--4------|
D||--0--0--0--0------------------------|--0--0--0--0---------------------------|
A||------------------------------------|---------------------------------------|


  PM PM PM PM               PM PM PM
  |-3|  |-3|  3      3      |--3--|
  E  S  S  E  Q.     Q.     E  E  E
-------------------------------------|
-------------------------------------|
-------------------------------------|
--------------5------6------------5--|
--------------7------8---------4-----|
--0--0--0--0----------------3--------|
-------------------------------------|


  3  3  3  3  3  3  3  3  3  3  3  3  3  3  3  3  3  3  3  3  3  3  3  3  |---3-
  T. T. T. T. T. T. T. T. T. T. T. T. T. T. T. T. T. T. T. T. T. T. T. T. E   E
---------------------------------------------------------------------------------|
---------------------------------------------------------------------------------|
---------------------------------------------------------------------------------|
--------------------------------------------------------------------------4h--5--|p
--3--3--3--3--3--3--6--6--3--3--3--3--3--3--6--6--3--3--3--3--3--3--6--6---------|
---------------------------------------------------------------------------------|
---------------------------------------------------------------------------------|


     PM PM PM
  |-3|  |-3|  |--3--|  3      |----3---|
  E  S  S  E  Q     E  Q.     E   E    E
-------------------------------------------|
-------------------------------------------|
------------------------------0--(0)--(0)--|
--------------5S----6--6----------6---(6)--|
--------------7S----8--8---------------8---|
--0--0--0--0-------------------------------|
-------------------------------------------|


     PM PM PM                             PM PM PM PM               PM PM PM
  |-3|  |-3|  |--3--|  |--3--|  3         |-3|  |-3|  3      3      |--3--|
  E  S  S  E  Q     E  Q     E  Q.        E  S  S  E  Q.     Q.     E  E  E
---------------------------------------|-------------------------------------|
---------------------------------------|-------------------------------------|
---------------------------------------|-------------------------------------|
--------------5S----6--5S----4--2------|--------------5------6------------5--|
--------------7S----8--7S----6--4------|--------------7------8---------4-----|
--0--0--0--0---------------------------|--0--0--0--0----------------3--------|
---------------------------------------|-------------------------------------|


  3  3  3  3  3  3  3  3  3  3  3  3  3  3  3  3  3  3  3  3  3  3  3  3  |---3-
  T. T. T. T. T. T. T. T. T. T. T. T. T. T. T. T. T. T. T. T. T. T. T. T. E   E
---------------------------------------------------------------------------------|
---------------------------------------------------------------------------------|
---------------------------------------------------------------------------------|
--------------------------------------------------------------------------4h--5--|p
--3--3--3--3--3--3--6--6--3--3--3--3--3--3--6--6--3--3--3--3--3--3--6--6---------|
---------------------------------------------------------------------------------|
---------------------------------------------------------------------------------|


     PM PM PM
  |-3|  |-3|  |--3--|  3      |----3---|
  E  S  S  E  Q     E  Q.     E   E    E
-------------------------------------------|
-------------------------------------------|
------------------------------0--(0)--(0)--|
--------------5S----6--6----------6---(6)--|
--------------7S----8--8---------------8---|
--0--0--0--0-------------------------------|
-------------------------------------------|


     PM PM PM                             PM PM PM PM               PM PM PM
  |-3|  |-3|  |--3--|  |--3--|  3         |-3|  |-3|  3      3      |--3--|
  E  S  S  E  Q     E  Q     E  Q.        E  S  S  E  Q.     Q.     E  E  E
---------------------------------------|-------------------------------------|
---------------------------------------|-------------------------------------|
---------------------------------------|-------------------------------------|
--------------5S----6--5S----4--2------|--------------5------6------------5--|
--------------7S----8--7S----6--4------|--------------7------8---------4-----|
--0--0--0--0---------------------------|--0--0--0--0----------------3--------|
---------------------------------------|-------------------------------------|


  3  3  3  3  3  3  3  3  3  3  3  3  3  3  3  3  3  3  3  3  3  3  3  3  |---3-
  T. T. T. T. T. T. T. T. T. T. T. T. T. T. T. T. T. T. T. T. T. T. T. T. E   E
---------------------------------------------------------------------------------|
---------------------------------------------------------------------------------|
---------------------------------------------------------------------------------|
--------------------------------------------------------------------------4h--5--|p
--3--3--3--3--3--3--6--6--3--3--3--3--3--3--6--6--3--3--3--3--3--3--6--6---------|
---------------------------------------------------------------------------------|
---------------------------------------------------------------------------------|


     PM PM PM
  |-3|  |-3|  |--3--|  3      |----3---|
  E  S  S  E  Q     E  Q.     E   E    E
-------------------------------------------|
-------------------------------------------|
------------------------------0--(0)--(0)--|
--------------5S----6--6----------6---(6)--|
--------------7S----8--8---------------8---|
--0--0--0--0-------------------------------|
-------------------------------------------|


     PM PM PM                             PM PM PM PM               PM PM PM
  |-3|  |-3|  |--3--|  |--3--|  3         |-3|  |-3|  3      3      |--3--|
  E  S  S  E  Q     E  Q     E  Q.        E  S  S  E  Q.     Q.     E  E  E
---------------------------------------|-------------------------------------|
---------------------------------------|-------------------------------------|
---------------------------------------|-------------------------------------|
--------------5S----6--5S----4--2------|--------------5------6------------5--|
--------------7S----8--7S----6--4------|--------------7------8---------4-----|
--0--0--0--0---------------------------|--0--0--0--0----------------3--------|
---------------------------------------|-------------------------------------|


  3  3  3  3  3  3  3  3  3  3  3  3  3  3  3  3  3  3  3  3  3  3  3  3  |---3-
  T. T. T. T. T. T. T. T. T. T. T. T. T. T. T. T. T. T. T. T. T. T. T. T. E   E
---------------------------------------------------------------------------------|
---------------------------------------------------------------------------------|
---------------------------------------------------------------------------------|
--------------------------------------------------------------------------4h--5--|p
--3--3--3--3--3--3--6--6--3--3--3--3--3--3--6--6--3--3--3--3--3--3--6--6---------|
---------------------------------------------------------------------------------|
---------------------------------------------------------------------------------|


     PM PM PM PM PM PM PM PM PM
  |-3|  |--3--|  |-3|  |--3--|  |-3-| |-3-| 3
  E  S  S  S  S  E  S  S  S  S  S S S S S S Q.
---------------------------------------------------|
---------------------------------------------------|
---------------------------------------------------|
---------------------------------------------------|
---------------------------------------------------|
--0--0--0--0--0--0--0--0--0--0--0-0-0-0-0-0-0------|
---------------------------------------------------|


  |-3-| |-3-| |-3-| |-3-| |-3-| |-3-| |-3-| |-3-|
  S S S S S S S S S S S S S S S S S S S S S S S S
--------------------------------------------------|
--------------------------------------------------|
--------------------------------------------------|
--------------3-3-3-3-3-3-5-5-5-5-5-5-3-3-3-3-3-3-|
--------------------------------------------------|
--1-1-1-1-1-1-------------------------------------|
--------------------------------------------------|


     PM PM PM PM PM PM PM PM PM
  |-3|  |--3--|  |-3|  |--3--|  |-3-| |-3-| 3
  E  S  S  S  S  E  S  S  S  S  S S S S S S Q.
---------------------------------------------------|
---------------------------------------------------|
---------------------------------------------------|
---------------------------------------------------|
---------------------------------------------------|
--0--0--0--0--0--0--0--0--0--0--0-0-0-0-0-0-0------|
---------------------------------------------------|


  |-3-| |-3-| |-3-| |-3-| |-3-| |-3-| |-3-| |-3-|
  S S S S S S S S S S S S S S S S S S S S S S S S
--------------------------------------------------|
--------------------------------------------------|
--------------------------------------------------|
--------------3-3-3-3-3-3-5-5-6-6-3-3-5-5-6-6-3-3-|
--------------------------------------------------|
--1-1-1-1-1-1-------------------------------------|
--------------------------------------------------|


     PM PM PM PM PM PM PM PM PM
  |-3|  |--3--|  |-3|  |--3--|  |-3-| |-3-| 3
  E  S  S  S  S  E  S  S  S  S  S S S S S S Q.
---------------------------------------------------|
---------------------------------------------------|
---------------------------------------------------|
---------------------------------------------------|
---------------------------------------------------|
--0--0--0--0--0--0--0--0--0--0--0-0-0-0-0-0-0------|
---------------------------------------------------|


  |-3-| |-3-| |-3-| |-3-| |-3-| |-3-| |-3-| |-3-|
  S S S S S S S S S S S S S S S S S S S S S S S S
--------------------------------------------------|
--------------------------------------------------|
--------------------------------------------------|
--------------3-3-3-3-3-3-5-5-5-5-5-5-3-3-3-3-3-3-|
--------------------------------------------------|
--1-1-1-1-1-1-------------------------------------|
--------------------------------------------------|


  |-3-| |-3-| |-3-| |-3-| |-3-| |-3-| |-3-| |-3-|
  S S S S S S S S S S S S S S S S S S S S S S S S
--------------------------------------------------|
--------------------------------------------------|
--------------------------------------------------|
--------------------------------------------------|
--3-3-3-3-3-3-3-3-3-3-3-3-------------------------|
--------------------------4-4-4-4-4-4-4-4-4-4-4-4-|
--------------------------------------------------|


  |-3-| |-3-| |-3-| |-3-| |-3-| |-3-| |-3-| |-3-|
  S S S S S S S S S S S S S S S S S S S S S S S S
--------------------------------------------------|
--------------------------------------------------|
--------------------------------------------------|
--------------------------------------------------|
--2-2-2-2-2-2-------------------------------------|
--------------3-3-3-3-3-3-1-1-1-1-1-1-3-3-3-3-3-3-|
--------------------------------------------------|


     PM PM PM PM PM PM PM PM PM
  |-3|  |--3--|  |-3|  |--3--|  |-3-| |-3-| 3
  E  S  S  S  S  E  S  S  S  S  S S S S S S Q.
---------------------------------------------------|
---------------------------------------------------|
---------------------------------------------------|
---------------------------------------------------|
---------------------------------------------------|
--0--0--0--0--0--0--0--0--0--0--0-0-0-0-0-0-0------|
---------------------------------------------------|


  |-3-| |-3-| |-3-| |-3-| |-3-| |-3-| |-3-| |-3-|
  S S S S S S S S S S S S S S S S S S S S S S S S
--------------------------------------------------|
--------------------------------------------------|
--------------------------------------------------|
--------------3-3-3-3-3-3-5-5-5-5-5-5-3-3-3-3-3-3-|
--------------------------------------------------|
--1-1-1-1-1-1-------------------------------------|
--------------------------------------------------|


     PM PM PM PM PM PM PM PM PM
  |-3|  |--3--|  |-3|  |--3--|  |-3-| |-3-| 3
  E  S  S  S  S  E  S  S  S  S  S S S S S S Q.
---------------------------------------------------|
---------------------------------------------------|
---------------------------------------------------|
---------------------------------------------------|
---------------------------------------------------|
--0--0--0--0--0--0--0--0--0--0--0-0-0-0-0-0-0------|
---------------------------------------------------|


  |-3-| |-3-| |-3-| |-3-| |-3-| |-3-| |-3-| |-3-|
  S S S S S S S S S S S S S S S S S S S S S S S S
--------------------------------------------------|
--------------------------------------------------|
--------------------------------------------------|
--------------3-3-3-3-3-3-5-5-6-6-3-3-5-5-6-6-3-3-|
--------------------------------------------------|
--1-1-1-1-1-1-------------------------------------|
--------------------------------------------------|


     PM PM PM PM PM PM PM PM PM
  |-3|  |--3--|  |-3|  |--3--|  |-3-| |-3-| 3
  E  S  S  S  S  E  S  S  S  S  S S S S S S Q.
---------------------------------------------------|
---------------------------------------------------|
---------------------------------------------------|
---------------------------------------------------|
---------------------------------------------------|
--0--0--0--0--0--0--0--0--0--0--0-0-0-0-0-0-0------|
---------------------------------------------------|


  |-3-| |-3-| |-3-| |-3-| |-3-| |-3-| |-3-| |-3-|
  S S S S S S S S S S S S S S S S S S S S S S S S
--------------------------------------------------|
--------------------------------------------------|
--------------------------------------------------|
--------------3-3-3-3-3-3-5-5-5-5-5-5-3-3-3-3-3-3-|
--------------------------------------------------|
--1-1-1-1-1-1-------------------------------------|
--------------------------------------------------|


  |-3-| |-3-| |-3-| |-3-| |-3-| |-3-| |-3-| |-3-|
  S S S S S S S S S S S S S S S S S S S S S S S S
--------------------------------------------------|
--------------------------------------------------|
--------------------------------------------------|
--------------------------------------------------|
--3-3-3-3-3-3-3-3-3-3-3-3-------------------------|
--------------------------4-4-4-4-4-4-4-4-4-4-4-4-|
--------------------------------------------------|


  |-3-| |-3-| |-3-| |-3-| |-3-| |-3-| 3
  S S S S S S S S S S S S S S S S S S Q.
----------------------------------------------|
----------------------------------------------|
----------------------------------------------|
----------------------------------------------|
--2-2-2-2-2-2---------------------------------|
--------------3-3-3-3-3-3-1-1-1-1-1-1-3~------|
----------------------------------------------|


  3       3       3       3         3       3       3       3
  Q.      Q.      Q.      Q.        Q.      Q.      Q.      Q.
---------------------------------|---------------------------------|
---------------------------------|---------------------------------|
------------------0--------------|------------------0--------------|
---------/9------(9)-------------|---------/6------(6)-------------|
--2-----------------------3------|--2-----------------------3------|
--0-----------------------1------|--0-----------------------1------|
---------------------------------|---------------------------------|


  3       3       3       3          |--3-|  |--3--|  |---3--|  |--3--|
  Q.      Q.      Q.      Q.         Q    E  E  E  E  E   E  E  E  E  E
---------------------------------|---------------------------------------|
---------------------------------|---------------------------------------|
------------------0--------------|---------------------------------------|
---------/8------(8)-------------|--/6----6--6--6--6--6S--5--5--5--5--5--|
--2------------------------------|---------------------------------------|
--0-----------------------0------|--/4----4--4--4--4--4S--3--3--3--3--3--|
---------------------------------|---------------------------------------|


  3       3       3       3         3       3       3       3
  Q.      Q.      Q.      Q.        Q.      Q.      Q.      Q.
---------------------------------|---------------------------------|
---------------------------------|---------------------------------|
------------------0--------------|------------------0--------------|
---------/9------(9)-------------|---------/6------(6)-------------|
--2-----------------------3------|--2-----------------------3------|
--0-----------------------1------|--0-----------------------1------|
---------------------------------|---------------------------------|


  3       3       3       3          |--3-|  |--3--|  |---3--|  |--3--|
  Q.      Q.      Q.      Q.         Q    E  E  E  E  E   E  E  E  E  E
---------------------------------|---------------------------------------|
---------------------------------|---------------------------------------|
------------------0--------------|---------------------------------------|
---------/8------(8)-------------|--/6----6--6--6--6--6S--5--5--5--5--5--|
--2------------------------------|---------------------------------------|
--0-----------------------0------|--/4----4--4--4--4--4S--3--3--3--3--3--|
---------------------------------|---------------------------------------|


     PM PM    PM PM    PM PM              PM PM PM    PM PM    PM PM
  |--3--|  |--3--|  |--3--|  |---3--|     |--3--|  |--3--|  |--3--|  |---3--|
  E  E  E  E  E  E  E  E  E  E   E  E     E  E  E  E  E  E  E  E  E  E   E  E
---------------------------------------|---------------------------------------|
---------------------------------------|---------------------------------------|
------------------------------------0--|------------------------------------0--|
------------------------------------3--|------------------------------------3--|
--2--------2--------2------------------|-----------2--------2------------------|
--0--0--0--0--0--0--0--0--0--0h--1--1--|--0--0--0--0--0--0--0--0--0--0h--1--1--|
---------------------------------------|---------------------------------------|


  PM PM PM    PM PM    PM PM
  |--3--|  |--3--|  |--3--|  |---3--|      |--3-|  |--3--|
  E  E  E  E  E  E  E  E  E  E   E  E      Q    E  E  E  E
---------------------------------------|--------------------|
---------------------------------------|--------------------|
------------------------------------0--|--------------------|
------------------------------------3--|--/6----6--6--6--6--|
-----------2--------2------------------|--------------------|
--0--0--0--0--0--0--0--0--0--0h--1--1--|--/4----4--4--4--4--|
---------------------------------------|--------------------|


       PM    PM PM    PM PM              PM PM PM    PM PM    PM PM
  |--3-|  |--3--|  |--3--|  |---3--|     |--3--|  |--3--|  |--3--|  |---3--|
  Q    E  E  E  E  E  E  E  E   E  E     E  E  E  E  E  E  E  E  E  E   E  E
--------------------------------------|---------------------------------------|
--------------------------------------|---------------------------------------|
-----------------------------------0--|------------------------------------0--|
-----------------------------------3--|------------------------------------3--|
--2-------2--------2------------------|-----------2--------2------------------|
--0----0--0--0--0--0--0--0--0h--1--1--|--0--0--0--0--0--0--0--0--0--0h--1--1--|
--------------------------------------|---------------------------------------|


  PM PM PM    PM PM    PM PM
  |--3--|  |--3--|  |--3--|  |---3--|      |--3-|  |--3--|
  E  E  E  E  E  E  E  E  E  E   E  E      Q    E  E  E  E
---------------------------------------|--------------------|
---------------------------------------|--------------------|
------------------------------------0--|--------------------|
------------------------------------3--|--/6----6--6--6--6--|
-----------2--------2------------------|--------------------|
--0--0--0--0--0--0--0--0--0--0h--1--1--|--/4----4--4--4--4--|
---------------------------------------|--------------------|


       PM    PM PM    PM PM              PM PM PM    PM PM    PM PM
  |--3-|  |--3--|  |--3--|  |---3--|     |--3--|  |--3--|  |--3--|  |---3--|
  Q    E  E  E  E  E  E  E  E   E  E     E  E  E  E  E  E  E  E  E  E   E  E
--------------------------------------|---------------------------------------|
--------------------------------------|---------------------------------------|
-----------------------------------0--|------------------------------------0--|
-----------------------------------3--|------------------------------------3--|
--2-------2--------2------------------|-----------2--------2------------------|
--0----0--0--0--0--0--0--0--0h--1--1--|--0--0--0--0--0--0--0--0--0--0h--1--1--|
--------------------------------------|---------------------------------------|


  PM PM PM    PM PM    PM PM
  |--3--|  |--3--|  |--3--|  |---3--|      |--3-|  |--3--|
  E  E  E  E  E  E  E  E  E  E   E  E      Q    E  E  E  E
---------------------------------------|--------------------|
---------------------------------------|--------------------|
------------------------------------0--|--------------------|
------------------------------------3--|--/6----6--6--6--6--|
-----------2--------2------------------|--------------------|
--0--0--0--0--0--0--0--0--0--0h--1--1--|--/4----4--4--4--4--|
---------------------------------------|--------------------|


       PM    PM PM    PM PM              PM PM PM    PM PM    PM PM
  |--3-|  |--3--|  |--3--|  |---3--|     |--3--|  |--3--|  |--3--|  |---3--|
  Q    E  E  E  E  E  E  E  E   E  E     E  E  E  E  E  E  E  E  E  E   E  E
--------------------------------------|---------------------------------------|
--------------------------------------|---------------------------------------|
-----------------------------------0--|------------------------------------0--|
-----------------------------------3--|------------------------------------3--|
--2-------2--------2------------------|-----------2--------2------------------|
--0----0--0--0--0--0--0--0--0h--1--1--|--0--0--0--0--0--0--0--0--0--0h--1--1--|
--------------------------------------|---------------------------------------|


  PM PM PM    PM PM    PM PM
  |--3--|  |--3--|  |--3--|  |---3--|
  E  E  E  E  E  E  E  E  E  E   E  E
---------------------------------------|
---------------------------------------|
------------------------------------0--|
------------------------------------3--|
-----------2--------2------------------|
--0--0--0--0--0--0--0--0--0--0h--1--1--|
---------------------------------------|


   |--3-|  |--3--|  |---3--|  |--3--|  |---3--|  |--3--|  |---3--|  |--3--|
   Q    E  E  E  E  E   E  E  E  E  E  E   E  E  E  E  E  E   E  E  E  E  E
-----------------------------------------------------------------------------|
-----------------------------------------------------------------------------|
-----------------------------------------------------------------------------|
--/6----6--6--6--6--6S--5--5--5--5--5--5S--9--9--9--9--9--9S--3--3--3--3--3--|
-----------------------------------------------------------------------------|
--/4----4--4--4--4--4S--3--3--3--3--3--3S--7--7--7--7--7--7S--1--1--1--1--1--|
-----------------------------------------------------------------------------|


  3       3       3       3         3       3       3       3
  Q.      Q.      Q.      Q.        Q.      Q.      Q.      Q.
---------------------------------|---------------------------------|
---------------------------------|---------------------------------|
------------------0--------------|------------------0--------------|
---------/9------(9)-------------|---------/6------(6)-------------|
--2-----------------------3------|--2-----------------------3------|
--0-----------------------1------|--0-----------------------1------|
---------------------------------|---------------------------------|


  3       3       3       3          |--3-|  |--3--|  |---3--|  |--3--|
  Q.      Q.      Q.      Q.         Q    E  E  E  E  E   E  E  E  E  E
---------------------------------|---------------------------------------|
---------------------------------|---------------------------------------|
------------------0--------------|---------------------------------------|
---------/8------(8)-------------|--/6----6--6--6--6--6S--5--5--5--5--5--|
--2------------------------------|---------------------------------------|
--0-----------------------0------|--/4----4--4--4--4--4S--3--3--3--3--3--|
---------------------------------|---------------------------------------|


  3       3       3       3         3       3       3       3
  Q.      Q.      Q.      Q.        Q.      Q.      Q.      Q.
---------------------------------|---------------------------------|
---------------------------------|---------------------------------|
------------------0--------------|------------------0--------------|
---------/9------(9)-------------|---------/6------(6)-------------|
--2-----------------------3------|--2-----------------------3------|
--0-----------------------1------|--0-----------------------1------|
---------------------------------|---------------------------------|


  3       3       3       3          |--3-|  |--3--|  |---3--|  |--3--|
  Q.      Q.      Q.      Q.         Q    E  E  E  E  E   E  E  E  E  E
---------------------------------|---------------------------------------|
---------------------------------|---------------------------------------|
------------------0--------------|---------------------------------------|
---------/8------(8)-------------|--/6----6--6--6--6--6S--5--5--5--5--5--|
--2------------------------------|---------------------------------------|
--0-----------------------0------|--/4----4--4--4--4--4S--3--3--3--3--3--|
---------------------------------|---------------------------------------|


       PM    PM PM    PM PM              PM PM PM    PM PM    PM PM
  |--3-|  |--3--|  |--3--|  |---3--|     |--3--|  |--3--|  |--3--|  |---3--|
  Q    E  E  E  E  E  E  E  E   E  E     E  E  E  E  E  E  E  E  E  E   E  E
--------------------------------------|---------------------------------------|
--------------------------------------|---------------------------------------|
-----------------------------------0--|------------------------------------0--|
-----------------------------------3--|------------------------------------3--|
--2-------2--------2------------------|-----------2--------2------------------|
--0----0--0--0--0--0--0--0--0h--1--1--|--0--0--0--0--0--0--0--0--0--0h--1--1--|
--------------------------------------|---------------------------------------|


  PM PM PM    PM PM    PM PM
  |--3--|  |--3--|  |--3--|  |---3--|      |--3-|  |--3--|
  E  E  E  E  E  E  E  E  E  E   E  E      Q    E  E  E  E
---------------------------------------|--------------------|
---------------------------------------|--------------------|
------------------------------------0--|--------------------|
------------------------------------3--|--/6----6--6--6--6--|
-----------2--------2------------------|--------------------|
--0--0--0--0--0--0--0--0--0--0h--1--1--|--/4----4--4--4--4--|
---------------------------------------|--------------------|


       PM    PM PM    PM PM              PM PM PM    PM PM    PM PM
  |--3-|  |--3--|  |--3--|  |---3--|     |--3--|  |--3--|  |--3--|  |---3--|
  Q    E  E  E  E  E  E  E  E   E  E     E  E  E  E  E  E  E  E  E  E   E  E
--------------------------------------|---------------------------------------|
--------------------------------------|---------------------------------------|
-----------------------------------0--|------------------------------------0--|
-----------------------------------3--|------------------------------------3--|
--2-------2--------2------------------|-----------2--------2------------------|
--0----0--0--0--0--0--0--0--0h--1--1--|--0--0--0--0--0--0--0--0--0--0h--1--1--|
--------------------------------------|---------------------------------------|


  PM PM PM    PM PM    PM PM
  |--3--|  |--3--|  |--3--|  |---3--|      |--3-|  |--3--|
  E  E  E  E  E  E  E  E  E  E   E  E      Q    E  E  E  E
---------------------------------------|--------------------|
---------------------------------------|--------------------|
------------------------------------0--|--------------------|
------------------------------------3--|--/6----6--6--6--6--|
-----------2--------2------------------|--------------------|
--0--0--0--0--0--0--0--0--0--0h--1--1--|--/4----4--4--4--4--|
---------------------------------------|--------------------|


       PM    PM PM    PM PM              PM PM PM    PM PM    PM PM
  |--3-|  |--3--|  |--3--|  |---3--|     |--3--|  |--3--|  |--3--|  |---3--|
  Q    E  E  E  E  E  E  E  E   E  E     E  E  E  E  E  E  E  E  E  E   E  E
--------------------------------------|---------------------------------------|
--------------------------------------|---------------------------------------|
-----------------------------------0--|------------------------------------0--|
-----------------------------------3--|------------------------------------3--|
--2-------2--------2------------------|-----------2--------2------------------|
--0----0--0--0--0--0--0--0--0h--1--1--|--0--0--0--0--0--0--0--0--0--0h--1--1--|
--------------------------------------|---------------------------------------|


  PM PM PM    PM PM    PM PM
  |--3--|  |--3--|  |--3--|  |---3--|      |--3-|  |--3--|
  E  E  E  E  E  E  E  E  E  E   E  E      Q    E  E  E  E
---------------------------------------|--------------------|
---------------------------------------|--------------------|
------------------------------------0--|--------------------|
------------------------------------3--|--/6----6--6--6--6--|
-----------2--------2------------------|--------------------|
--0--0--0--0--0--0--0--0--0--0h--1--1--|--/4----4--4--4--4--|
---------------------------------------|--------------------|


       PM    PM PM    PM PM              PM PM PM    PM PM    PM PM
  |--3-|  |--3--|  |--3--|  |---3--|     |--3--|  |--3--|  |--3--|  |---3--|
  Q    E  E  E  E  E  E  E  E   E  E     E  E  E  E  E  E  E  E  E  E   E  E
--------------------------------------|---------------------------------------|
--------------------------------------|---------------------------------------|
-----------------------------------0--|------------------------------------0--|
-----------------------------------3--|------------------------------------3--|
--2-------2--------2------------------|-----------2--------2------------------|
--0----0--0--0--0--0--0--0--0h--1--1--|--0--0--0--0--0--0--0--0--0--0h--1--1--|
--------------------------------------|---------------------------------------|


  PM PM PM    PM PM    PM PM
  |--3--|  |--3--|  |--3--|  |---3--|
  E  E  E  E  E  E  E  E  E  E   E  E
---------------------------------------|
---------------------------------------|
------------------------------------0--|
------------------------------------3--|
-----------2--------2------------------|
--0--0--0--0--0--0--0--0--0--0h--1--1--|
---------------------------------------|


   |--3-|  |--3--|  |---3--|  |--3--|  |---3--|  |--3--|  |---3--|  |--3--|
   Q    E  E  E  E  E   E  E  E  E  E  E   E  E  E  E  E  E   E  E  E  E  E
-----------------------------------------------------------------------------|
-----------------------------------------------------------------------------|
-----------------------------------------------------------------------------|
--/6----6--6--6--6--6S--5--5--5--5--5--5S--9--9--9--9--9--9S--3--3--3--3--3--|
-----------------------------------------------------------------------------|
--/4----4--4--4--4--4S--3--3--3--3--3--3S--7--7--7--7--7--7S--1--1--1--1--1--|
-----------------------------------------------------------------------------|


                       |---3--|  |---3--|  |---3--|  |---3--|
  H.           Q       E   E  E  E   E  E  E   E  E  E   E  E
--------------------|------------------------------------------|
--------------------|------------------------------------------|
--------------------|------------------------------------------|
--2-----------------|---------8---------8---------8---------8--|
--2-----------------|------------------------------------------|
--0------------x----|--0h--6-----0h--6-----0h--6-----0h--6-----|
--------------------|------------------------------------------|


  |---3--|  |---3--|  |---3--|  |---3--|
  E   E  E  E   E  E  E   E  E  E   E  E
------------------------------------------|
------------------------------------------|
------------------------------------------|
---------8---------8---------8---------8--|
------------------------------------------|
--0h--6-----0h--6-----0h--6-----0h--6-----|
------------------------------------------|


  |---3--|  |---3--|  |---3--|  |---3--|
  E   E  E  E   E  E  E   E  E  E   E  E
------------------------------------------|
------------------------------------------|
------------------------------------------|
---------8---------8---------8---------8--|
------------------------------------------|
--0h--6-----0h--6-----0h--6-----0h--6-----|
------------------------------------------|


  |---3--|  |---3--|  |---3--|  |---3--|
  E   E  E  E   E  E  E   E  E  E   E  E
------------------------------------------|
------------------------------------------|
------------------------------------------|
---------8---------8---------8---------8--|
------------------------------------------|
--0h--6-----0h--6-----0h--6-----0h--6-----|
------------------------------------------|


  |---3--|  |---3--|  |---3--|  |---3--|
  E   E  E  E   E  E  E   E  E  E   E  E
------------------------------------------|
------------------------------------------|
------------------------------------------|
---------8---------8---------8---------8--|
------------------------------------------|
--0h--6-----0h--6-----0h--6-----0h--6-----|
------------------------------------------|


  |---3---|  |---3--|  |----3---|  |---3--|
  E   E   E  E   E  E  E    E   E  E   E  E
---------------------------------------------|
---------------------------------------------|
---------------------------------------------|
---------11---------9----------12---------9--|
---------------------------------------------|
--0h--9------0h--7-----0h--10------0h--7-----|
---------------------------------------------|


  |---3--|  |---3--|  |---3--|  |---3--|
  E   E  E  E   E  E  E   E  E  E   E  E
------------------------------------------|
------------------------------------------|
------------------------------------------|
---------8---------8---------8---------8--|
------------------------------------------|
--0h--6-----0h--6-----0h--6-----0h--6-----|
------------------------------------------|


  |---3--|  |---3--|  |---3--|  |---3--|
  E   E  E  E   E  E  E   E  E  E   E  E
------------------------------------------|
------------------------------------------|
------------------------------------------|
---------8---------8---------8---------8--|
------------------------------------------|
--0h--6-----0h--6-----0h--6-----0h--6-----|
------------------------------------------|


  |---3--|  |---3--|  |---3--|  |---3--|
  E   E  E  E   E  E  E   E  E  E   E  E
------------------------------------------|
------------------------------------------|
------------------------------------------|
---------8---------8---------8---------8--|
------------------------------------------|
--0h--6-----0h--6-----0h--6-----0h--6-----|
------------------------------------------|


  |---3---|  |---3--|  |----3---|  |---3--|
  E   E   E  E   E  E  E    E   E  E   E  E
---------------------------------------------|
---------------------------------------------|
---------------------------------------------|
---------11---------9----------12---------9--|
---------------------------------------------|
--0h--9------0h--7-----0h--10------0h--7-----|
---------------------------------------------|


  |---3--|  |---3--|  |---3--|  |---3--|
  E   E  E  E   E  E  E   E  E  E   E  E
------------------------------------------|
------------------------------------------|
------------------------------------------|
---------8---------8---------8---------8--|
------------------------------------------|
--0h--6-----0h--6-----0h--6-----0h--6-----|
------------------------------------------|


  |---3--|  |---3--|  |---3--|  |---3--|
  E   E  E  E   E  E  E   E  E  E   E  E
------------------------------------------|
------------------------------------------|
------------------------------------------|
---------8---------8---------8---------8--|
------------------------------------------|
--0h--6-----0h--6-----0h--6-----0h--6-----|
------------------------------------------|


  |---3--|  |---3--|  |---3--|  |---3--|
  E   E  E  E   E  E  E   E  E  E   E  E
------------------------------------------|
------------------------------------------|
------------------------------------------|
---------8---------8---------8---------8--|
------------------------------------------|
--0h--6-----0h--6-----0h--6-----0h--6-----|
------------------------------------------|


  |---3---|  |---3--|  |----3---|  |---3--|
  E   E   E  E   E  E  E    E   E  E   E  E
---------------------------------------------|
---------------------------------------------|
---------------------------------------------|
---------11---------9----------12---------9--|
---------------------------------------------|
--0h--9------0h--7-----0h--10------0h--7-----|
---------------------------------------------|


  |---3--|  |---3--|  |---3--|  |---3--|
  E   E  E  E   E  E  E   E  E  E   E  E
------------------------------------------|
------------------------------------------|
------------------------------------------|
---------8---------8---------8---------8--|
------------------------------------------|
--0h--6-----0h--6-----0h--6-----0h--6-----|
------------------------------------------|


  |---3--|  |---3--|  |---3--|  |---3--|
  E   E  E  E   E  E  E   E  E  E   E  E
------------------------------------------|
------------------------------------------|
------------------------------------------|
---------8---------8---------8---------8--|
------------------------------------------|
--0h--6-----0h--6-----0h--6-----0h--6-----|
------------------------------------------|


  |---3--|  |---3--|  |---3--|  |---3--|
  E   E  E  E   E  E  E   E  E  E   E  E
------------------------------------------|
------------------------------------------|
------------------------------------------|
---------8---------8---------8---------8--|
------------------------------------------|
--0h--6-----0h--6-----0h--6-----0h--6-----|
------------------------------------------|


  |---3---|  |---3--|  |----3---|  |---3--|
  E   E   E  E   E  E  E    E   E  E   E  E     H.            Q
---------------------------------------------|---------------------|
---------------------------------------------|---------------------|
---------------------------------------------|---------------------|
---------11---------9----------12---------9--|---------------------|
---------------------------------------------|---------------------|
--0h--9------0h--7-----0h--10------0h--7-----|--6~------------x----|
---------------------------------------------|---------------------|


   |--3--|   |---3---|   |--3--|   |---3---|
   Q     E   E   E   E   Q     E   E   E   E
----------------------------------------------|
----------------------------------------------|
----------------------------------------------|
----------------------------------------------|
--13----13--13--13--13--13----13--13--13--13--|
---0-----0---0---0---0---0-----0---0---0---0--|
----------------------------------------------|


   |--3--|   |---3---|   |--3--|   |---3---|
   Q     E   E   E   E   Q     E   E   E   E
----------------------------------------------|
----------------------------------------------|
----------------------------------------------|
----------------------------------------------|
--13----13--13--13--13--13----13--13--13--13--|
---0-----0---0---0---0---0-----0---0---0---0--|
----------------------------------------------|


   |--3--|   |---3---|   |--3--|   |---3---|
   Q     E   E   E   E   Q     E   E   E   E
----------------------------------------------|
----------------------------------------------|
----------------------------------------------|
----------------------------------------------|
--13----13--13--13--13--13----13--13--13--13--|
---0-----0---0---0---0---0-----0---0---0---0--|
----------------------------------------------|


   |--3--|   |---3---|   |-----3-----|
   Q     E   E   E   E   Q     Q     Q
------------------------------------------|
------------------------------------------|
------------------------------------------|
------------------------------------------|
--13----13--13--13--13--13----13----13----|
---0-----0---0---0---0---0-----0-----0----|
------------------------------------------|


    |--3--|   |---3---|   |--3--|   |---3---|
    Q     E   E   E   E   Q     E   E   E   E
-----------------------------------------------|
-----------------------------------------------|
-----------------------------------------------|
-----------------------------------------------|
--/13----13--13--13--13--11----11--11--11--11--|
----0-----0---0---0---0---0-----0---0---0---0--|
-----------------------------------------------|


   |--3--|   |--3--|   |-----3-----|
   Q     E   Q     E   Q     Q     Q
----------------------------------------|
----------------------------------------|
----------------------------------------|
----------------------------------------|
--13----13--11----11--14----13----11----|
---0-----0---0-----0---0-----0-----0----|
----------------------------------------|


   |--3--|   |---3---|   |--3--|   |---3---|
   Q     E   E   E   E   Q     E   E   E   E
----------------------------------------------|
----------------------------------------------|
----------------------------------------------|
----------------------------------------------|
--10----10--10--10--10--10----10--10--10--10--|
---0-----0---0---0---0---0-----0---0---0---0--|
----------------------------------------------|


   |--3--|   |---3---|   |--3--|   |---3---|
   Q     E   E   E   E   Q     E   E   E   E
----------------------------------------------|
----------------------------------------------|
----------------------------------------------|
----------------------------------------------|
--10----10--10--10--10--10----10--10--10--10--|
---0-----0---0---0---0---0-----0---0---0---0--|
----------------------------------------------|


    |--3--|   |---3---|   |--3--|   |---3---|
    Q     E   E   E   E   Q     E   E   E   E
-----------------------------------------------|
-----------------------------------------------|
-----------------------------------------------|
-----------------------------------------------|
--/13----13--13--13--13--11----11--11--11--11--|
----0-----0---0---0---0---0-----0---0---0---0--|
-----------------------------------------------|


   |--3--|   |--3--|   |-----3-----|
   Q     E   Q     E   Q     Q     Q
----------------------------------------|
----------------------------------------|
----------------------------------------|
----------------------------------------|
--13----13--11----11--14----13----11----|
---0-----0---0-----0---0-----0-----0----|
----------------------------------------|


   |--3--|   |---3---|   |--3--|   |---3---|
   Q     E   E   E   E   Q     E   E   E   E
----------------------------------------------|
----------------------------------------------|
----------------------------------------------|
----------------------------------------------|
--10----10--10--10--10--10----10--10--10--10--|
---0-----0---0---0---0---0-----0---0---0---0--|
----------------------------------------------|


   |--3--|   |---3---|   |--3--|   |---3---|
   Q     E   E   E   E   Q     E   E   E   E
----------------------------------------------|
----------------------------------------------|
----------------------------------------------|
----------------------------------------------|
--10----10--10--10--10--10----10--10--10--10--|
---0-----0---0---0---0---0-----0---0---0---0--|
----------------------------------------------|


    |--3--|   |---3---|   |--3--|   |---3---|
    Q     E   E   E   E   Q     E   E   E   E
-----------------------------------------------|
-----------------------------------------------|
-----------------------------------------------|
-----------------------------------------------|
--/18----18--18--18--18--16----16--16--16--16--|
----0-----0---0---0---0---0-----0---0---0---0--|
-----------------------------------------------|


   |--3--|   |--3--|   |-----3-----|
   Q     E   Q     E   Q     Q     Q
----------------------------------------|
----------------------------------------|
----------------------------------------|
----------------------------------------|
--13----13--11----11--14----13----11----|
---0-----0---0-----0---0-----0-----0----|
----------------------------------------|


   |--3--|   |---3---|   |--3--|   |---3---|
   Q     E   E   E   E   Q     E   E   E   E
----------------------------------------------|
----------------------------------------------|
----------------------------------------------|
----------------------------------------------|
--10----10--10--10--10--10----10--10--10--10--|
---0-----0---0---0---0---0-----0---0---0---0--|
----------------------------------------------|


   |--3--|   |---3---|   |--3--|   |---3---|
   Q     E   E   E   E   Q     E   E   E   E
----------------------------------------------|
----------------------------------------------|
----------------------------------------------|
----------------------------------------------|
--10----10--10--10--10--10----10--10--10--10--|
---0-----0---0---0---0---0-----0---0---0---0--|
----------------------------------------------|


    |--3--|   |---3---|   |--3--|   |---3---|
    Q     E   E   E   E   Q     E   E   E   E
-----------------------------------------------|
-----------------------------------------------|
-----------------------------------------------|
-----------------------------------------------|
--/18----18--18--18--18--16----16--16--16--16--|
----0-----0---0---0---0---0-----0---0---0---0--|
-----------------------------------------------|


   |--3--|   |--3--|   |-----3-----|
   Q     E   Q     E   Q     Q     Q
----------------------------------------|
----------------------------------------|
----------------------------------------|
----------------------------------------|
--13----13--11----11--14----13----11----|
---0-----0---0-----0---0-----0-----0----|
----------------------------------------|


   |--3--|   |---3---|   |--3--|   |---3---|
   Q     E   E   E   E   Q     E   E   E   E
----------------------------------------------|
----------------------------------------------|
----------------------------------------------|
----------------------------------------------|
--10----10--10--10--10--10----10--10--10--10--|
---0-----0---0---0---0---0-----0---0---0---0--|
----------------------------------------------|


  |--3-|  |--3--|  |--3-|  |--3--|     |--3-|  |--3--|  |--3-|  |--3--|
  Q    E  E  E  E  Q    E  E  E  E     Q    E  E  E  E  Q    E  E  E  E
------------------------------------|------------------------------------|
------------------------------------|------------------------------------|
------------------------------------|------------------------------------|
------------------------------------|------------------------------------|
--8----8--8--8--8--8----8--8--8--8--|--7----7--7--7--7--7----7--7--7--7--|
--0----0--0--0--0--0----0--0--0--0--|--0----0--0--0--0--0----0--0--0--0--|
------------------------------------|------------------------------------|


  |--3-|  |--3--|  |--3-|  |--3--|     |--3-|  |--3--|  |--3-|  |--3--|
  Q    E  E  E  E  Q    E  E  E  E     Q    E  E  E  E  Q    E  E  E  E
------------------------------------|------------------------------------|
------------------------------------|------------------------------------|
------------------------------------|------------------------------------|
------------------------------------|--9----9--9--9--9--9----9--9--9--9--|
--7----7--7--7--7--7----7--7--7--7--|--7----7--7--7--7--7----7--7--7--7--|
--0----0--0--0--0--0----0--0--0--0--|--0----0--0--0--0--0----0--0--0--0--|
------------------------------------|------------------------------------|


  |--3-|  |--3--|  |--3-|  |--3--|     |--3-|  |--3--|  |--3-|  |--3--|
  Q    E  E  E  E  Q    E  E  E  E     Q    E  E  E  E  Q    E  E  E  E
------------------------------------|------------------------------------|
------------------------------------|------------------------------------|
------------------------------------|------------------------------------|
--9----9--9--9--9--9----9--9--9--9--|--9----9--9--9--9--9----9--9--9--9--|
--7----7--7--7--7--7----7--7--7--7--|--7----7--7--7--7--7----7--7--7--7--|
--0----0--0--0--0--0----0--0--0--0--|--0----0--0--0--0--0----0--0--0--0--|
------------------------------------|------------------------------------|


  |--3-|  |--3--|  |--3-|  |--3--|     |--3-|  |--3--|  |--3-|  |--3--|
  Q    E  E  E  E  Q    E  E  E  E     Q    E  E  E  E  Q    E  E  E  E
------------------------------------|------------------------------------|
------------------------------------|------------------------------------|
------------------------------------|------------------------------------|
--9----9--9--9--9--9----9--9--9--9--|--9----9--9--9--9--9----9--9--9--9--|
--7----7--7--7--7--7----7--7--7--7--|--7----7--7--7--7--7----7--7--7--7--|
--0----0--0--0--0--0----0--0--0--0--|--0----0--0--0--0--0----0--0--0--0--|
------------------------------------|------------------------------------|


                                           PM PM    PM PM    PM PM
  |--3-|  |--3--|  |--3-|    3          |--3--|  |--3--|  |--3--|  |---3--|
  Q    E  E  E  E  Q    E    Q.         E  E  E  E  E  E  E  E  E  E   E  E
-------------------------------------|---------------------------------------|
-------------------------------------|---------------------------------------|
-------------------------------------|------------------------------------0--|
--9----9--9--9--9--9-----------------|------------------------------------3--|
--7----7--7--7--7--7-----------------|--2--------2--------2------------------|
--0----0--0--0--0--0----0/--12\------|--0--0--0--0--0--0--0--0--0--0h--1--1--|
-------------------------------------|---------------------------------------|


  PM PM PM    PM PM    PM PM              PM PM PM    PM PM    PM PM
  |--3--|  |--3--|  |--3--|  |---3--|     |--3--|  |--3--|  |--3--|  |---3--|
  E  E  E  E  E  E  E  E  E  E   E  E     E  E  E  E  E  E  E  E  E  E   E  E
---------------------------------------|---------------------------------------|
---------------------------------------|---------------------------------------|
------------------------------------0--|------------------------------------0--|
------------------------------------3--|------------------------------------3--|
-----------2--------2------------------|-----------2--------2------------------|
--0--0--0--0--0--0--0--0--0--0h--1--1--|--0--0--0--0--0--0--0--0--0--0h--1--1--|
---------------------------------------|---------------------------------------|


                            PM    PM PM    PM PM
   |--3-|  |--3--|     |--3-|  |--3--|  |--3--|  |---3--|
   Q    E  E  E  E     Q    E  E  E  E  E  E  E  E   E  E
--------------------|--------------------------------------|
--------------------|--------------------------------------|
--------------------|-----------------------------------0--|
--/6----6--6--6--6--|-----------------------------------3--|
--------------------|--2-------2--------2------------------|
--/4----4--4--4--4--|--0----0--0--0--0--0--0--0--0h--1--1--|
--------------------|--------------------------------------|


  PM PM PM    PM PM    PM PM              PM PM PM    PM PM    PM PM
  |--3--|  |--3--|  |--3--|  |---3--|     |--3--|  |--3--|  |--3--|  |---3--|
  E  E  E  E  E  E  E  E  E  E   E  E     E  E  E  E  E  E  E  E  E  E   E  E
---------------------------------------|---------------------------------------|
---------------------------------------|---------------------------------------|
------------------------------------0--|------------------------------------0--|
------------------------------------3--|------------------------------------3--|
-----------2--------2------------------|-----------2--------2------------------|
--0--0--0--0--0--0--0--0--0--0h--1--1--|--0--0--0--0--0--0--0--0--0--0h--1--1--|
---------------------------------------|---------------------------------------|


                            PM    PM PM    PM PM
   |--3-|  |--3--|     |--3-|  |--3--|  |--3--|  |---3--|
   Q    E  E  E  E     Q    E  E  E  E  E  E  E  E   E  E
--------------------|--------------------------------------|
--------------------|--------------------------------------|
--------------------|-----------------------------------0--|
--/6----6--6--6--6--|-----------------------------------3--|
--------------------|--2-------2--------2------------------|
--/4----4--4--4--4--|--0----0--0--0--0--0--0--0--0h--1--1--|
--------------------|--------------------------------------|


  PM PM PM    PM PM    PM PM              PM PM PM    PM PM    PM PM
  |--3--|  |--3--|  |--3--|  |---3--|     |--3--|  |--3--|  |--3--|  |---3--|
  E  E  E  E  E  E  E  E  E  E   E  E     E  E  E  E  E  E  E  E  E  E   E  E
---------------------------------------|---------------------------------------|
---------------------------------------|---------------------------------------|
------------------------------------0--|------------------------------------0--|
------------------------------------3--|------------------------------------3--|
-----------2--------2------------------|-----------2--------2------------------|
--0--0--0--0--0--0--0--0--0--0h--1--1--|--0--0--0--0--0--0--0--0--0--0h--1--1--|
---------------------------------------|---------------------------------------|


                            PM    PM PM    PM PM
   |--3-|  |--3--|     |--3-|  |--3--|  |--3--|  |---3--|
   Q    E  E  E  E     Q    E  E  E  E  E  E  E  E   E  E
--------------------|--------------------------------------|
--------------------|--------------------------------------|
--------------------|-----------------------------------0--|
--/6----6--6--6--6--|-----------------------------------3--|
--------------------|--2-------2--------2------------------|
--/4----4--4--4--4--|--0----0--0--0--0--0--0--0--0h--1--1--|
--------------------|--------------------------------------|


  PM PM PM    PM PM    PM PM              PM PM PM    PM PM    PM PM
  |--3--|  |--3--|  |--3--|  |---3--|     |--3--|  |--3--|  |--3--|  |---3--|
  E  E  E  E  E  E  E  E  E  E   E  E     E  E  E  E  E  E  E  E  E  E   E  E
---------------------------------------|---------------------------------------|
---------------------------------------|---------------------------------------|
------------------------------------0--|------------------------------------0--|
------------------------------------3--|------------------------------------3--|
-----------2--------2------------------|-----------2--------2------------------|
--0--0--0--0--0--0--0--0--0--0h--1--1--|--0--0--0--0--0--0--0--0--0--0h--1--1--|
---------------------------------------|---------------------------------------|


   |--3-|  |--3--|  |---3--|  |--3--|  |---3--|  |--3--|  |---3--|  |--3--|
   Q    E  E  E  E  E   E  E  E  E  E  E   E  E  E  E  E  E   E  E  E  E  E
-----------------------------------------------------------------------------|
-----------------------------------------------------------------------------|
-----------------------------------------------------------------------------|
--/6----6--6--6--6--6S--5--5--5--5--5--5S--9--9--9--9--9--9S--3--3--3--3--3--|
-----------------------------------------------------------------------------|
--/4----4--4--4--4--4S--3--3--3--3--3--3S--7--7--7--7--7--7S--1--1--1--1--1--|
-----------------------------------------------------------------------------|


     PM PM PM                          PM PM PM PM
  |-3|  |-3|  |--3--|  3               |-3|  |-3|  |--3--|  |--3--|  3
  E  S  S  E  Q     E  H.              E  S  S  E  Q     E  Q     E  Q.
------------------------------------|---------------------------------------|
------------------------------------|---------------------------------------|
------------------------------------|---------------------------------------|
--------------5S----6--6------------|--------------5S----6--5S----4--2------|
--------------7S----8--8------------|--------------7S----8--7S----6--4------|
--0--0--0--0------------------------|--0--0--0--0---------------------------|
------------------------------------|---------------------------------------|


  PM PM PM PM               PM PM PM
  |-3|  |-3|  3      3      |--3--|
  E  S  S  E  Q.     Q.     E  E  E
-------------------------------------|
-------------------------------------|
-------------------------------------|
--------------5------6------------5--|
--------------7------8---------4-----|
--0--0--0--0----------------3--------|
-------------------------------------|


  3  3  3  3  3  3  3  3  3  3  3  3  3  3  3  3  3  3  3  3  3  3  3  3  |---3-
  T. T. T. T. T. T. T. T. T. T. T. T. T. T. T. T. T. T. T. T. T. T. T. T. E   E
---------------------------------------------------------------------------------|
---------------------------------------------------------------------------------|
---------------------------------------------------------------------------------|
--------------------------------------------------------------------------4h--5--|p
--3--3--3--3--3--3--6--6--3--3--3--3--3--3--6--6--3--3--3--3--3--3--6--6---------|
---------------------------------------------------------------------------------|
---------------------------------------------------------------------------------|


     PM PM PM
  |-3|  |-3|  |--3--|  3      |----3---|
  E  S  S  E  Q     E  Q.     E   E    E
-------------------------------------------|
-------------------------------------------|
------------------------------0--(0)--(0)--|
--------------5S----6--6----------6---(6)--|
--------------7S----8--8---------------8---|
--0--0--0--0-------------------------------|
-------------------------------------------|


     PM PM PM                             PM PM PM PM               PM PM PM
  |-3|  |-3|  |--3--|  |--3--|  3         |-3|  |-3|  3      3      |--3--|
  E  S  S  E  Q     E  Q     E  Q.        E  S  S  E  Q.     Q.     E  E  E
---------------------------------------|-------------------------------------|
---------------------------------------|-------------------------------------|
---------------------------------------|-------------------------------------|
--------------5S----6--5S----4--2------|--------------5------6------------5--|
--------------7S----8--7S----6--4------|--------------7------8---------4-----|
--0--0--0--0---------------------------|--0--0--0--0----------------3--------|
---------------------------------------|-------------------------------------|


  3  3  3  3  3  3  3  3  3  3  3  3  3  3  3  3  3  3  3  3  3  3  3  3  |---3-
  T. T. T. T. T. T. T. T. T. T. T. T. T. T. T. T. T. T. T. T. T. T. T. T. E   E
---------------------------------------------------------------------------------|
---------------------------------------------------------------------------------|
---------------------------------------------------------------------------------|
--------------------------------------------------------------------------4h--5--|p
--3--3--3--3--3--3--6--6--3--3--3--3--3--3--6--6--3--3--3--3--3--3--6--6---------|
---------------------------------------------------------------------------------|
---------------------------------------------------------------------------------|


     PM PM PM
  |-3|  |-3|  |--3--|  3      |----3---|
  E  S  S  E  Q     E  Q.     E   E    E
-------------------------------------------|
-------------------------------------------|
------------------------------0--(0)--(0)--|
--------------5S----6--6----------6---(6)--|
--------------7S----8--8---------------8---|
--0--0--0--0-------------------------------|
-------------------------------------------|


     PM PM PM                             PM PM PM PM               PM PM PM
  |-3|  |-3|  |--3--|  |--3--|  3         |-3|  |-3|  3      3      |--3--|
  E  S  S  E  Q     E  Q     E  Q.        E  S  S  E  Q.     Q.     E  E  E
---------------------------------------|-------------------------------------|
---------------------------------------|-------------------------------------|
---------------------------------------|-------------------------------------|
--------------5S----6--5S----4--2------|--------------5------6------------5--|
--------------7S----8--7S----6--4------|--------------7------8---------4-----|
--0--0--0--0---------------------------|--0--0--0--0----------------3--------|
---------------------------------------|-------------------------------------|


  3  3  3  3  3  3  3  3  3  3  3  3  3  3  3  3  3  3  3  3  3  3  3  3  |---3-
  T. T. T. T. T. T. T. T. T. T. T. T. T. T. T. T. T. T. T. T. T. T. T. T. E   E
---------------------------------------------------------------------------------|
---------------------------------------------------------------------------------|
---------------------------------------------------------------------------------|
--------------------------------------------------------------------------4h--5--|p
--3--3--3--3--3--3--6--6--3--3--3--3--3--3--6--6--3--3--3--3--3--3--6--6---------|
---------------------------------------------------------------------------------|
---------------------------------------------------------------------------------|


     PM PM PM
  |-3|  |-3|  |--3--|  3      |----3---|
  E  S  S  E  Q     E  Q.     E   E    E
-------------------------------------------|
-------------------------------------------|
------------------------------0--(0)--(0)--|
--------------5S----6--6----------6---(6)--|
--------------7S----8--8---------------8---|
--0--0--0--0-------------------------------|
-------------------------------------------|


     PM PM PM                             PM PM PM PM               PM PM PM
  |-3|  |-3|  |--3--|  |--3--|  3         |-3|  |-3|  3      3      |--3--|
  E  S  S  E  Q     E  Q     E  Q.        E  S  S  E  Q.     Q.     E  E  E
---------------------------------------|-------------------------------------|
---------------------------------------|-------------------------------------|
---------------------------------------|-------------------------------------|
--------------5S----6--5S----4--2------|--------------5------6------------5--|
--------------7S----8--7S----6--4------|--------------7------8---------4-----|
--0--0--0--0---------------------------|--0--0--0--0----------------3--------|
---------------------------------------|-------------------------------------|


  3  3  3  3  3  3  3  3  3  3  3  3  3  3  3  3  3  3  3  3  3  
Добавлено: 15.06.2012
Вам также может быть интересно:
Другие материалы по этой песне:
  • Аккорды и текст

Страница создана 15.06.2012
http://primanota.ru/thrown-to-the-sun/ravenous-sun-chords.htm
Привет, Гость.
Предлагаем пройти революционный курс по гитаре.
Подарок от PrimaNota.Ru, забирай!